0 0

Profile
Personal Photo
Rating
 
Options
Options
Personal Statement
Bluefinger doesn't have a personal statement currently.
Personal Info
Bluefinger
GMC:er
Age Unknown
Male
Germany
Birthday Unknown
Interests
No Information
Statistics
Joined: 22-January 08
Profile Views: 1.540*
Last Seen: 2nd February 2014 - 01:10 PM
Local Time: Apr 19 2014, 03:56 PM
25 posts (0 per day)
Contact Information
* Profile views updated each hour

Bluefinger

Members

*


Topics
Posts
Practice Agenda
Comments
Friends
My Content
18 Sep 2008
I'm looking for a robust and good sounding Wah pedal. If possible with a true bypass. Any recommendations ? Thanks, Bluefinger
15 Sep 2008
Hi Ivan,

I'm currently practising your Gary Moore Intermediate/Advanced lesson. A great piece to learn from. Thanks for that. However I'm having problems with part 4. Maybe I'm completely wrong and I miss something but I have the impression that you play much more notes in the video than I can find in the notation.


Part 4:

|--3--| |--3--| |--3--| |--3-| |-3-| 3
T T T T T T T T T T T T T T T T
---------------------------------------------
---------------10----------------------------
--9p-7----7h-9----9p-7-----------------------
-------10--------------10p-7s-5--------------
--------------------------------
7p-5---5h-7p-
-------------------------------------
8-------


|-3-| 3
T T T E E
---------------|
---------------|
---------------|
---------------|
--
5------------|
----
8-5-L~-----|


The black part is still correct, but I have highlighted in red where my problems start. Maybe you can check. Thanks a lot for your help.

BlueFinger
26 Jan 2008
I'm currently fighting with Burn from Deep Purple which I have to learn for my band. I cannot play the major theme faster than 110 bpm. I think, I don't use the correct fingering.

So how would you play this part ?


E E E E Q. E E E E Q. Q
E||-------------------------|------------------------|
B||-------------------------|------------------------|
G||-----3S--2-----5---------|--3S--2-----5------3----|
D||-----3S--2-----5---------|--3S--2-----5------3----|
A||-------------------------|------------------------|
E||--3---------3---------3--|---------3--------------|


E E E E Q. E E E E H E
--------------------------|-------------------------||
--------------------------|-------------------------||
-----3S--2-----5~---------|--3S--2p--0--------------||
-----3S--2-----5~---------|--3S--2p--0--3--------L--||
--------------------------|-------------3--------L--||
--3---------3----------3--|-------------------------||



Thanks for your support.
22 Jan 2008
For a couple of days I have some performance problems when playing lesson videos especially in the europien evenening hours. Videos play 2-3 seconds only and stop then because of buffering.

I have a fast internet connection and no problems with other video streaming sites like youtube. To me it seems like a problem with the europien mirror of GMC. Can anyone confirm this ? Thanks a lot, bluefinger.
22 Jan 2008
Dear all,

I'm new to GMC and take the opportunity to talk about myself. rolleyes.gif I'm a little bit older than 20 years and play guitar for a couple of years already. Nevertheless I can improve a lot and that's one reason why I have subscribed to this awesome site. I live in Germany and play in a band for some years mostly Rock and Blues of the 70s and 80s. I love to play guitar but I will never become a professional player. It's the best hobby you can have and I'll stick to that.

I really like many of the lessons I've seen and especially the different styles of the instructors. Maybe they can add some more blues lessons in the future because I haven't seen that many, yet.

CU online,

Bluefinger
Last Visitors


1 Mar 2013 - 9:44


13 Feb 2013 - 16:14


30 Nov 2011 - 8:51


15 Dec 2010 - 21:05


21 Sep 2008 - 16:43

Comments
Other users have left no comments for Bluefinger.

Friends
There are no friends to display.

RSS Lo-Fi Version Time is now: 19th April 2014 - 03:56 PM