0 0

3 Pages V   1 2 3 >  
Reply to this topicStart new topic
> Ben's Video Chat Lesson Notes
Ben Higgins
post Mar 1 2011, 07:58 PM
Post #1


Instructor
Group Icon

Group: GMC Instructor
Posts: 12.654
Joined: 11-March 10
From: England
Member No.: 9.820



Legato:


Lick 1

S S S S S S S S S S S S S S S S
E||--8p-0-8p-0-7p-0-7p-0-5p-0-5p-0-7p-0-7p-0-|
B||------------------------------------------|
G||------------------------------------------|
D||------------------------------------------|
A||------------------------------------------|
E||------------------------------------------|


S S S S S S S S S S S S S S S S
--8p-0-7p-0-5p-0-7p-0-8p-0-7p-0-5p-0-7p-0-|
------------------------------------------|
------------------------------------------|
------------------------------------------|
------------------------------------------|
------------------------------------------|


S S S S S S S S S S S S S S S S
--8p-0-8p-0-7p-0-7p-0-5p-0-5p-0-7p-0-7p-0-|
------------------------------------------|
------------------------------------------|
------------------------------------------|
------------------------------------------|
------------------------------------------|


S S S S S S S S S S S S S S S S
--8p-0-7p-0-5p-0-7p-0-8p-0-7p-0-5p-0-7p-0-||
------------------------------------------||
------------------------------------------||
------------------------------------------||
------------------------------------------||
------------------------------------------||

Lick 2

|---3---| |---3---| |---3---| |---3---|
E E E E E E E E E E E E
E||--8p--7p--5--8p--7p--5--8p--7p--5--8p--7p--5--|
B||----------------------------------------------|
G||----------------------------------------------|
D||----------------------------------------------|
A||----------------------------------------------|
E||----------------------------------------------|


|---3---| |---3---| |---3---| |---3---|
E E E E E E E E E E E E
--8p--7p--5--8p--7p--5--8p--7p--5--8p--7p--5--|
----------------------------------------------|
----------------------------------------------|
----------------------------------------------|
----------------------------------------------|
----------------------------------------------|


|---3---| |---3---| |---3---| |---3---|
E E E E E E E E E E E E
--10p--8p--7--10p--8p--7--10p--8p--7--10p--8p--7--|
--------------------------------------------------|
--------------------------------------------------|
--------------------------------------------------|
--------------------------------------------------|
--------------------------------------------------|


|---3---| |---3---| |---3---| |---3---|
E E E E E E E E E E E E
--10p--8p--7--10p--8p--7--10p--8p--7--10p--8p--7--|
--------------------------------------------------|
--------------------------------------------------|
--------------------------------------------------|
--------------------------------------------------|
--------------------------------------------------|


|----3---| |----3---| |----3---| |----3---|
E E E E E E E E E E E E
--12p--10p--8--12p--10p--8--12p--10p--8--12p--10p--8--|
------------------------------------------------------|
------------------------------------------------------|
------------------------------------------------------|
------------------------------------------------------|
------------------------------------------------------|


|----3---| |----3---| |----3---| |----3---|
E E E E E E E E E E E E
--12p--10p--8--12p--10p--8--12p--10p--8--12p--10p--8--|
------------------------------------------------------|
------------------------------------------------------|
------------------------------------------------------|
------------------------------------------------------|
------------------------------------------------------|


|----3----| |----3----| |----3----| |----3----|
E E E E E E E E E E E E
--13p--12p--10--13p--12p--10--13p--12p--10--13p--12p--10--|
----------------------------------------------------------|
----------------------------------------------------------|
----------------------------------------------------------|
----------------------------------------------------------|
----------------------------------------------------------|


|----3----| |----3----| |----3----| |----3----| ---
E E E E E E E E E E E E
--13p--12p--10--13p--12p--10--13p--12p--10--13p--12p--10--|-----||
----------------------------------------------------------|-----||
----------------------------------------------------------|-----||
----------------------------------------------------------|-----||
----------------------------------------------------------|-----||
----------------------------------------------------------|-----||



Lick 3

|---3---| |---3---| |---3---| |---3---|
E E E E E E E E E E E E
E||--5h--7h--8--5h--7h--8--5h--7h--8--5h--7h--8--|
B||----------------------------------------------|
G||----------------------------------------------|
D||----------------------------------------------|
A||----------------------------------------------|
E||----------------------------------------------|


|---3---| |---3---| |---3---| |---3---|
E E E E E E E E E E E E
--5h--7h--8--5h--7h--8--5h--7h--8--5h--7h--8--|
----------------------------------------------|
----------------------------------------------|
----------------------------------------------|
----------------------------------------------|
----------------------------------------------|


|----3---| |----3---| |----3---| |----3---|
E E E E E E E E E E E E
--7h--8h--10--7h--8h--10--7h--8h--10--7h--8h--10--|
--------------------------------------------------|
--------------------------------------------------|
--------------------------------------------------|
--------------------------------------------------|
--------------------------------------------------|


|----3---| |----3---| |----3---| |----3---|
E E E E E E E E E E E E
--7h--8h--10--7h--8h--10--7h--8h--10--7h--8h--10--|
--------------------------------------------------|
--------------------------------------------------|
--------------------------------------------------|
--------------------------------------------------|
--------------------------------------------------|


|----3----| |----3----| |----3----| |----3----|
E E E E E E E E E E E E
--8h--10h--12--8h--10h--12--8h--10h--12--8h--10h--12--|
------------------------------------------------------|
------------------------------------------------------|
------------------------------------------------------|
------------------------------------------------------|
------------------------------------------------------|


|----3----| |----3----| |----3----| |----3----|
E E E E E E E E E E E E
--8h--10h--12--8h--10h--12--8h--10h--12--8h--10h--12--|
------------------------------------------------------|
------------------------------------------------------|
------------------------------------------------------|
------------------------------------------------------|
------------------------------------------------------|


|----3----| |----3----| |----3----| |----3----|
E E E E E E E E E E E E
--10h--12h--13--10h--12h--13--10h--12h--13--10h--12h--13--|
----------------------------------------------------------|
----------------------------------------------------------|
----------------------------------------------------------|
----------------------------------------------------------|
----------------------------------------------------------|


|----3----| |----3----| |----3----| |----3----| ---
E E E E E E E E E E E E
--10h--12h--13--10h--12h--13--10h--12h--13--10h--12h--13--|-----||
----------------------------------------------------------|-----||
----------------------------------------------------------|-----||
----------------------------------------------------------|-----||
----------------------------------------------------------|-----||
----------------------------------------------------------|-----||




--------------------
Go to the top of the page
 
+Quote Post
dark dude
post Mar 1 2011, 08:18 PM
Post #2


GMC:er
*

Group: Members
Posts: 1.081
Joined: 27-September 09
From: London, UK
Member No.: 7.668



Lick 1
CODE
S S S S S S S S S S S S S S S S
E||--8p-0-8p-0-7p-0-7p-0-5p-0-5p-0-7p-0-7p-0-|
B||------------------------------------------|
G||------------------------------------------|
D||------------------------------------------|
A||------------------------------------------|
E||------------------------------------------|


CODE
S S S S S S S S S S S S S S S S
--8p-0-7p-0-5p-0-7p-0-8p-0-7p-0-5p-0-7p-0-|
------------------------------------------|
------------------------------------------|
------------------------------------------|
------------------------------------------|
------------------------------------------|



CODE
S S S S S S S S S S S S S S S S
--8p-0-8p-0-7p-0-7p-0-5p-0-5p-0-7p-0-7p-0-|
------------------------------------------|
------------------------------------------|
------------------------------------------|
------------------------------------------|
------------------------------------------|



CODE
S S S S S S S S S S S S S S S S
--8p-0-7p-0-5p-0-7p-0-8p-0-7p-0-5p-0-7p-0-||
------------------------------------------||
------------------------------------------||
------------------------------------------||
------------------------------------------||
------------------------------------------||


Lick 2

CODE
|---3---| |---3---| |---3---| |---3---|
E E E E E E E E E E E E
E||--8p--7p--5--8p--7p--5--8p--7p--5--8p--7p--5--|
B||----------------------------------------------|
G||----------------------------------------------|
D||----------------------------------------------|
A||----------------------------------------------|
E||----------------------------------------------|


CODE
|---3---| |---3---| |---3---| |---3---|
E E E E E E E E E E E E
--8p--7p--5--8p--7p--5--8p--7p--5--8p--7p--5--|
----------------------------------------------|
----------------------------------------------|
----------------------------------------------|
----------------------------------------------|
----------------------------------------------|



CODE
|---3---| |---3---| |---3---| |---3---|
E E E E E E E E E E E E
--10p--8p--7--10p--8p--7--10p--8p--7--10p--8p--7--|
--------------------------------------------------|
--------------------------------------------------|
--------------------------------------------------|
--------------------------------------------------|
--------------------------------------------------|

CODE
|---3---| |---3---| |---3---| |---3---|
E E E E E E E E E E E E
--10p--8p--7--10p--8p--7--10p--8p--7--10p--8p--7--|
--------------------------------------------------|
--------------------------------------------------|
--------------------------------------------------|
--------------------------------------------------|
--------------------------------------------------|


CODE
|----3---| |----3---| |----3---| |----3---|
E E E E E E E E E E E E
--12p--10p--8--12p--10p--8--12p--10p--8--12p--10p--8--|
------------------------------------------------------|
------------------------------------------------------|
------------------------------------------------------|
------------------------------------------------------|
------------------------------------------------------|



CODE
|----3---| |----3---| |----3---| |----3---|
E E E E E E E E E E E E
--12p--10p--8--12p--10p--8--12p--10p--8--12p--10p--8--|
------------------------------------------------------|
------------------------------------------------------|
------------------------------------------------------|
------------------------------------------------------|
------------------------------------------------------|


CODE
|----3----| |----3----| |----3----| |----3----|
E E E E E E E E E E E E
--13p--12p--10--13p--12p--10--13p--12p--10--13p--12p--10--|
----------------------------------------------------------|
----------------------------------------------------------|
----------------------------------------------------------|
----------------------------------------------------------|
----------------------------------------------------------|



CODE
|----3----| |----3----| |----3----| |----3----| ---
E E E E E E E E E E E E
--13p--12p--10--13p--12p--10--13p--12p--10--13p--12p--10--|-----||
----------------------------------------------------------|-----||
----------------------------------------------------------|-----||
----------------------------------------------------------|-----||
----------------------------------------------------------|-----||
----------------------------------------------------------|-----||




Lick 3

CODE
|---3---| |---3---| |---3---| |---3---|
E E E E E E E E E E E E
E||--5h--7h--8--5h--7h--8--5h--7h--8--5h--7h--8--|
B||----------------------------------------------|
G||----------------------------------------------|
D||----------------------------------------------|
A||----------------------------------------------|
E||----------------------------------------------|


CODE
|---3---| |---3---| |---3---| |---3---|
E E E E E E E E E E E E
--5h--7h--8--5h--7h--8--5h--7h--8--5h--7h--8--|
----------------------------------------------|
----------------------------------------------|
----------------------------------------------|
----------------------------------------------|
----------------------------------------------|


CODE
|----3---| |----3---| |----3---| |----3---|
E E E E E E E E E E E E
--7h--8h--10--7h--8h--10--7h--8h--10--7h--8h--10--|
--------------------------------------------------|
--------------------------------------------------|
--------------------------------------------------|
--------------------------------------------------|
--------------------------------------------------|


CODE
|----3---| |----3---| |----3---| |----3---|
E E E E E E E E E E E E
--7h--8h--10--7h--8h--10--7h--8h--10--7h--8h--10--|
--------------------------------------------------|
--------------------------------------------------|
--------------------------------------------------|
--------------------------------------------------|
--------------------------------------------------|



CODE
|----3----| |----3----| |----3----| |----3----|
E E E E E E E E E E E E
--8h--10h--12--8h--10h--12--8h--10h--12--8h--10h--12--|
------------------------------------------------------|
------------------------------------------------------|
------------------------------------------------------|
------------------------------------------------------|
------------------------------------------------------|



CODE
|----3----| |----3----| |----3----| |----3----|
E E E E E E E E E E E E
--8h--10h--12--8h--10h--12--8h--10h--12--8h--10h--12--|
------------------------------------------------------|
------------------------------------------------------|
------------------------------------------------------|
------------------------------------------------------|
------------------------------------------------------|



CODE
|----3----| |----3----| |----3----| |----3----|
E E E E E E E E E E E E
--10h--12h--13--10h--12h--13--10h--12h--13--10h--12h--13--|
----------------------------------------------------------|
----------------------------------------------------------|
----------------------------------------------------------|
----------------------------------------------------------|
----------------------------------------------------------|



CODE
|----3----| |----3----| |----3----| |----3----| ---
E E E E E E E E E E E E
--10h--12h--13--10h--12h--13--10h--12h--13--10h--12h--13--|-----||
----------------------------------------------------------|-----||
----------------------------------------------------------|-----||
----------------------------------------------------------|-----||
----------------------------------------------------------|-----||
----------------------------------------------------------|-----||


This post has been edited by dark dude: Mar 1 2011, 08:22 PM


--------------------
Ibanez 2550E
LTD EC-1000 VB
Roland Cube 30W
Go to the top of the page
 
+Quote Post
Ben Higgins
post Mar 8 2011, 07:40 PM
Post #3


Instructor
Group Icon

Group: GMC Instructor
Posts: 12.654
Joined: 11-March 10
From: England
Member No.: 9.820



Lick 4

|--3--| |--3--| |--3--| |--3--| |--3--| |--3--| |--3--| |--3--|
S S S S S S S S S S S S S S S S S S S S S S S S
E||--5h-8p-7-5h-7h-8-5h-8p-7-5h-7h-8-5h-8p-7-5h-7h-8-5h-8p-7-5h-7h-8-|
B||------------------------------------------------------------------|
G||------------------------------------------------------------------|
D||------------------------------------------------------------------|
A||------------------------------------------------------------------|
E||------------------------------------------------------------------|


|---3--| |---3--| |---3--| |---3--| |---3--| |---3--| |---3--| |---3--|
S S S S S S S S S S S S S S S S S S S S S S S S
--7h-10p-8-7h-8h-10-7h-10p-8-7h-8h-10-7h-10p-8-7h-8h-10-7h-10p-8-7h-8h-10-|
--------------------------------------------------------------------------|
--------------------------------------------------------------------------|
--------------------------------------------------------------------------|
--------------------------------------------------------------------------|
--------------------------------------------------------------------------|


|---3---| |---3---| |---3---| |---3---| |---3---| |---3---| |---3---| |---3---|
S S S S S S S S S S S S S S S S S S S S S S S S
--8h-12p-10-8h-10h-12-8h-12p-10-8h-10h-12-8h-12p-10-8h-10h-12-8h-12p-10-8h-10h-12-|
----------------------------------------------------------------------------------|
----------------------------------------------------------------------------------|
----------------------------------------------------------------------------------|
----------------------------------------------------------------------------------|
----------------------------------------------------------------------------------|


|---3---| |---3---| |---3---| |---3---| |---3---| |---3---| |---3---| |---3---|
S S S S S S S S S S S S S S S S S S S S S S S S
--10h-13p-12-10h-12h-13-10h-13p-12-10h-12h-13-10h-13p-12-10h-12h-13-10h-13p-12-10h-12h-13-||
------------------------------------------------------------------------------------------||
------------------------------------------------------------------------------------------||
------------------------------------------------------------------------------------------||
------------------------------------------------------------------------------------------||
------------------------------------------------------------------------------------------||



Lick 5

|--3--| |--3--| |--3--| |--3--| |--3--| |--3--| |--3--| |--3--|
S S S S S S S S S S S S S S S S S S S S S S S S
E||--5h-8p-7-5h-7h-8-5h-8p-7-5h-7h-8---------------------------------|
B||----------------------------------5h-8p-6-5h-6h-8-5h-8p-6-5h-6h-8-|
G||------------------------------------------------------------------|
D||------------------------------------------------------------------|
A||------------------------------------------------------------------|
E||------------------------------------------------------------------|


|--3--| |--3--| |--3--| |--3--| |--3--| |--3--| |--3--| |--3--|
S S S S S S S S S S S S S S S S S S S S S S S S
------------------------------------------------------------------|
------------------------------------------------------------------|
--4h-7p-5-4h-5h-7-4h-7p-5-4h-5h-7---------------------------------|
----------------------------------3h-7p-5-3h-5h-7-3h-7p-5-3h-5h-7-|
------------------------------------------------------------------|
------------------------------------------------------------------|


|--3--| |--3--| |--3--| |--3--| |--3--| |--3--| |--3--| |--3--|
S S S S S S S S S S S S S S S S S S S S S S S S W
------------------------------------------------------------------|-------------------||
------------------------------------------------------------------|-------------------||
------------------------------------------------------------------|-------------------||
------------------------------------------------------------------|-------------------||
--3h-7p-5-3h-5h-7-3h-7p-5-3h-5h-7---------------------------------|-------------------||
----------------------------------3h-7p-5-3h-5h-7-3h-7p-5-3h-5h-7-|--5----------------||



--------------------
Go to the top of the page
 
+Quote Post
Ben Higgins
post Mar 21 2011, 11:56 AM
Post #4


Instructor
Group Icon

Group: GMC Instructor
Posts: 12.654
Joined: 11-March 10
From: England
Member No.: 9.820



Lick 6

|---3--| |--3-| |---3--| |--3-| |---3--| |--3-| |---3--| |--3-|
S S S S S S S S S S S S S S S S S S S S S S S S
E||--5h-8h-10p-8p-5---5h-8h-10p-8p-5---5h-8h-10p-8p-5---5h-8h-10p-8p-5---|
B||-----------------8----------------8----------------8----------------8-|
G||----------------------------------------------------------------------|
D||----------------------------------------------------------------------|
A||----------------------------------------------------------------------|
E||----------------------------------------------------------------------|


|---3---| |--3--| |---3---| |--3--| |---3---| |--3--| |---3---| |--3--|
S S S S S S S S S S S S S S S S S S S S S S S S
--8h-10h-12p-10p-8----8h-10h-12p-10p-8----8h-10h-12p-10p-8----8h-10h-12p-10p-8----|
-------------------10------------------10------------------10------------------10-|
----------------------------------------------------------------------------------|
----------------------------------------------------------------------------------|
----------------------------------------------------------------------------------|
----------------------------------------------------------------------------------|


|---3---| |---3--| |---3---| |---3--| |---3---| |---3--| |---3---| |---3--|
S S S S S S S S S S S S S S S S S S S S S S S S
--10h-12h-15p-12p-10----10h-12h-15p-12p-10----10h-12h-15p-12p-10----10h-12h-15p-12p-10----|
---------------------13--------------------13--------------------13--------------------13-|
------------------------------------------------------------------------------------------|
------------------------------------------------------------------------------------------|
------------------------------------------------------------------------------------------|
------------------------------------------------------------------------------------------|


|---3---| |---3--| |---3---| |---3--| |---3---| |---3--| |---3---| |---3--|
S S S S S S S S S S S S S S S S S S S S S S S S
--12h-15h-17p-15p-12----12h-15h-17p-15p-12----12h-15h-17p-15p-12----12h-15h-17p-15p-12----|
---------------------15--------------------15--------------------15--------------------15-|
------------------------------------------------------------------------------------------|
------------------------------------------------------------------------------------------|
------------------------------------------------------------------------------------------|
------------------------------------------------------------------------------------------|


W
--12----------------||
--------------------||
--------------------||
--------------------||
--------------------||
--------------------||





Lick 7

|--3--| |--3--| |--3--| |--3--| |---3--| |---3--| |---3--| |---3--|
S S S S S S S S S S S S S S S S S S S S S S S S
E||--10p-8p-5----------10p-8p-5----------12p-10p-8-----------12p-10p-8-----------|
B||-----------10p-8p-5----------10p-8p-5-----------13p-10p-8-----------13p-10p-8-|
G||------------------------------------------------------------------------------|
D||------------------------------------------------------------------------------|
A||------------------------------------------------------------------------------|
E||------------------------------------------------------------------------------|


|---3---| |---3---| |---3---| |---3---| |---3---| |---3---| |---3---| |---3---|
S S S S S S S S S S S S S S S S S S S S S S S S
--15p-12p-10------------15p-12p-10------------17p-15p-12------------17p-15p-12------------|
-------------15p-13p-10------------15p-13p-10------------17p-15p-13------------17p-15p-13-|
------------------------------------------------------------------------------------------|
------------------------------------------------------------------------------------------|
------------------------------------------------------------------------------------------|
------------------------------------------------------------------------------------------|


|---3---| |---3---| |---3---| |---3---| |---3---| |---3---| |---3---| |---3---|
S S S S S S S S S S S S S S S S S S S S S S S S
--20p-17p-15------------20p-17p-15------------22p-20p-17------------22p-20p-17------------|
-------------20p-17p-15------------20p-17p-15------------22p-20p-17------------22p-20p-17-|
------------------------------------------------------------------------------------------|
------------------------------------------------------------------------------------------|
------------------------------------------------------------------------------------------|
------------------------------------------------------------------------------------------|


W
--17----------------||
--------------------||
--------------------||
--------------------||
--------------------||
--------------------||






--------------------
Go to the top of the page
 
+Quote Post
Ben Higgins
post Apr 26 2011, 09:33 AM
Post #5


Instructor
Group Icon

Group: GMC Instructor
Posts: 12.654
Joined: 11-March 10
From: England
Member No.: 9.820



Lick 8

|--3--| |--3--| |--3--| |--3--| |--3-| |--3--| |--3--| |--3--|
S S S S S S S S S S S S S S S S S S S S S S S S
E||--8p-7p-5h-7p-5h---5h-------------------------------------------------|
B||-----------------8----8p-6h-8p-6p-5h-6p-5---5h------------------------|
G||------------------------------------------7----7p-5h-7p-5p-4h-5p-4h---|
D||--------------------------------------------------------------------7-|
A||----------------------------------------------------------------------|
E||----------------------------------------------------------------------|


|--3--| |--3--| |--3--| |--3--| |--3--| |--3--| |--3--| |--3--|
S S S S S S S S S S S S S S S S S S S S S S S S W
------------------------------------------------------------------------|-------------------||
------------------------------------------------------------------------|-------------------||
--4h--------------------------------------------------------------------|-------------------||
-----7p-5h-7p-5p-3h-5p-3h---3h------------------------------------------|-------------------||
--------------------------7----7p-5h-7p-5p-3h-5p-3h---3h----------------|-------------------||
----------------------------------------------------7----7p-5h-7p-5p-3h-|--5----------------||




Lick 9

|--3--| |--3-| |--3--| |--3--| |--3-| |--3--| |--3--| |--3-|
S S S S S S S S S S S S S S S S S S S S S S S S
E||------------------------------------------------------------------|
B||------------------------------------------------------------------|
G||----------------------------------------------------------5-------|
D||----------------------------------5---------------5h-7h-9---9p-7h-|
A||----------5---------------5h-7h-8---8p-7p-5h-7h-8-----------------|
E||--5h-7h-8---8p-7p-5h-7h-8-----------------------------------------|


|--3--| |--3--| |--3-| |--3--| |---3--| |--3--| |---3--| |---3--|
S S S S S S S S S S S S S S S S S S S S S S S S W
-------------------------------------------7-----------------7h-8h-10S-|--12----------------||
------------------6---------------6h-8h-10---10p-8p-6h-8h-10-----------|--------------------||
----------5h-7h-9---9p-7p-5h-7h-9--------------------------------------|--------------------||
--5h-7h-9--------------------------------------------------------------|--------------------||
-----------------------------------------------------------------------|--------------------||
-----------------------------------------------------------------------|--------------------||






--------------------
Go to the top of the page
 
+Quote Post
Ben Higgins
post Jul 19 2011, 03:14 PM
Post #6


Instructor
Group Icon

Group: GMC Instructor
Posts: 12.654
Joined: 11-March 10
From: England
Member No.: 9.820



Lick 10

S S S S S S S S S S S S S S S S
E||----------------------------------------------------------|
B||--12h-15p-12----12h-15p-12----12h-15p-12----12h-15p-12----|
G||-------------15------------15------------15------------15-|
D||----------------------------------------------------------|
A||----------------------------------------------------------|
E||----------------------------------------------------------|


S S S S S S S S S S S S S S S S
----------------------------------------------------------I
--12h-15p-12----12h-15p-12----12h-15p-12----12h-15p-12----|
-------------15------------15------------15------------15-|
----------------------------------------------------------|
----------------------------------------------------------|
----------------------------------------------------------|


Lick 11


|--3--| |---3---| |--3--| |---3---| |--3--| |---3---| |--3--| |---3---
S S S S S S S S S S S S S S S S S S S S S S S
--------------------------------------------------------------------------------
--12------------------12------------------12------------------12----------------
-----15-14-12h-14h-15----15-14-12h-14h-15----15-14-12h-14h-15----15-14-12h-14h-15
--------------------------------------------------------------------------------
--------------------------------------------------------------------------------
--------------------------------------------------------------------------------


|--3--| |---3---| |--3--| |---3---| |--3--| |---3---| |--3--| |---3---
S S S S S S S S S S S S S S S S S S S S S S S
--------------------------------------------------------------------------------
--12------------------12------------------12------------------12----------------
-----15-14-12h-14h-15----15-14-12h-14h-15----15-14-12h-14h-15----15-14-12h-14h-15
--------------------------------------------------------------------------------
--------------------------------------------------------------------------------
--------------------------------------------------------------------------------


|--3--| |---3---| |--3--| |---3---| |--3--| |---3---| |--3--| |---
S S S S S S S S S S S S S S S S S S S S S S
--------------------------------------------------------------------------------
--12-------------------12-------------------12-------------------12-------------
-----15-14p-12h-14h-15----15-14p-12h-14h-15----15-14p-12h-14h-15----15-14p-12h-15
--------------------------------------------------------------------------------
--------------------------------------------------------------------------------
--------------------------------------------------------------------------------



Lick 12


S T T S S T T S S T T S S T T S S T T S S
--12-15p-12----12-17p-12----12-18p-12----12-17p-12----12-15p-12----12-|
------------15-----------15-----------15-----------15-----------15----|
----------------------------------------------------------------------|
----------------------------------------------------------------------|
----------------------------------------------------------------------|
----------------------------------------------------------------------|


S T T S S T T S S T T S S T T S S T T S S
--12-15p-12----12-17p-12----12-18p-12----12-17p-12----12-15p-12----12-||
------------15-----------15-----------15-----------15-----------15----||
----------------------------------------------------------------------||
----------------------------------------------------------------------||
----------------------------------------------------------------------||
----------------------------------------------------------------------||






--------------------
Go to the top of the page
 
+Quote Post
Ben Higgins
post Aug 16 2011, 02:17 PM
Post #7


Instructor
Group Icon

Group: GMC Instructor
Posts: 12.654
Joined: 11-March 10
From: England
Member No.: 9.820



Lick 13


|---3--| |--3--| |---3--| |--3--| |---3--| |--3--| |---3--| |--3--|
S S S S S S S S S S S S S S S S S S S S S S S S
E||--17p-12----------12-17p-12----------12-15p-12----------12-15p-12----------12-|
B||---------14----14-----------14----14-----------14----14-----------14----14----|
G||------------14-----------------14-----------------14-----------------14-------|
D||------------------------------------------------------------------------------|
A||------------------------------------------------------------------------------|
E||------------------------------------------------------------------------------|


|---3--| |--3--| |---3--| |--3--| |---3--| |--3--| |---3--| |--3--|
S S S S S S S S S S S S S S S S S S S S S S S S
--14p-10----------10-14p-10----------10-13p-10----------10-13p-10----------10-|
---------10----10-----------10----10-----------12----12-----------12----12----|
------------11-----------------11-----------------10-----------------10-------|
------------------------------------------------------------------------------|
------------------------------------------------------------------------------|
------------------------------------------------------------------------------|


|--3--| |--3-| |--3--| |--3-|
S S S S S S S S S S S S E Q E
--12p-9---------9-12p-9---------9-12----------||
--------10---10---------10---10---------------||
-----------9---------------9------------------||
----------------------------------------------||
----------------------------------------------||
----------------------------------------------||



Lick for tonight, Tuesday August 16th smile.gif

This post has been edited by Ben Higgins: Aug 16 2011, 02:18 PM


--------------------
Go to the top of the page
 
+Quote Post
Marek Rojewski
post Aug 16 2011, 02:27 PM
Post #8


Learning Tone Guru
*

Group: Members
Posts: 1.581
Joined: 26-May 08
From: Lodz, Poland
Member No.: 5.185



Oh no, sweep picking!

This post has been edited by Marek Rojewski: Aug 16 2011, 02:27 PM


--------------------
Go to the top of the page
 
+Quote Post
Ben Higgins
post Aug 16 2011, 04:28 PM
Post #9


Instructor
Group Icon

Group: GMC Instructor
Posts: 12.654
Joined: 11-March 10
From: England
Member No.: 9.820



QUOTE (Marek Rojewski @ Aug 16 2011, 02:27 PM) *
Oh no, sweep picking!


Oh yes cool.gif

I's something I need to practice so you can all practice it with me !! ohmy.gif


--------------------
Go to the top of the page
 
+Quote Post
playaxeman
post Aug 16 2011, 09:49 PM
Post #10


Learning Rock Star
*

Group: Members
Posts: 1.405
Joined: 16-October 08
From: Breda , The Netherlands
Member No.: 6.091



Ben I really dig this lick(s)

I there a way to replay the chat? I have missed it.

Thx
Robert


--------------------
Gear:

Guitars
Ernie Ball Music Man Luke BFR , Paul Reed Smith Santana III, Gibson Les Paul, Ovation Adamas, Ovation Ultra ,Line 6 Variax 700

Amps
Hughes & Kettner Switchblade 50 combo, Line 6 Vetta II combo , Roland Jazz Chorus

Effects
Korg Pandora PX5D, Line 6 Pod XT Live

Recording
Line 6 Guitarport with Line 6 Gearbox , Logitech QuickCam Pro 9000, Magix MusicMaker2008

Visit My Website


Go to the top of the page
 
+Quote Post
Ben Higgins
post Aug 17 2011, 10:11 AM
Post #11


Instructor
Group Icon

Group: GMC Instructor
Posts: 12.654
Joined: 11-March 10
From: England
Member No.: 9.820



QUOTE (playaxeman @ Aug 16 2011, 09:49 PM) *
Ben I really dig this lick(s)

I there a way to replay the chat? I have missed it.

Thx
Robert


Unfortunately there isn't sad.gif But I started a thread here where I've encouraged people to record their own takes of the lick.. it's going to be like a progress update where we all share our improvements on the lick.. so please join in ! smile.gif


--------------------
Go to the top of the page
 
+Quote Post
Ben Higgins
post Aug 23 2011, 04:24 PM
Post #12


Instructor
Group Icon

Group: GMC Instructor
Posts: 12.654
Joined: 11-March 10
From: England
Member No.: 9.820



Lick 14 - Picking

To be played in straight 16th notes, not triplets.


S S S S S S S S S S S S S S S S S S Q H E
E||--------------------------------------------------|---------------------------|
B||--------------------------------------------------|---------------------------|
G||--------------------------------------------------|---------------------------|
D||--------------------------------------------------|---------------------------|
A||--13-12-10----------13-12-10----------13-12-10----|--------12-----L-----------|
E||-----------13-12-10----------13-12-10----------13-|--12-10--------------------|


S S S S S S S S S S S S S S S S S S Q H E
--------------------------------------------------|---------------------------|
--------------------------------------------------|---------------------------|
--------------------------------------------------|---------------------------|
--------------------------------------------------|---------------------------|
--13-12-10----------13-12-10----------13-12-10----|--------12-----L-----------|
-----------13-12-10----------13-12-10----------13-|--12-10--------------------|


S S S S S S S S S S S S S S S S S S Q H E S S S S S S S S S S S S S S S S
----------------------------------|-----------------------|----------------------------------|
----------------------------------|-----------------------|----------------------------------|
----------------------------------|-----------------------|----------------------------------|
----------------------------------|-----------------------|----------------------------------|
--8-7-5-------8-7-5-------8-7-5---|------7----L-----------|--8-7-5-------8-7-5-------8-7-5---|
--------8-6-5-------8-6-5-------8-|--6-5------------------|--------8-6-5-------8-6-5-------8-|


S S Q H E S S S S S S S S S S S S S S S S S S Q H E
-----------------------|----------------------------------|-----------------------|
-----------------------|----------------------------------|-----------------------|
-----------------------|----------------------------------|-----------------------|
-----------------------|----------------------------------|-----------------------|
------7----L-----------|--7-5-3-------7-5-3-------7-5-3---|------5----L-----------|
--6-5------------------|--------6-5-3-------6-5-3-------6-|--5-3------------------|


S S S S S S S S S S S S S S S S S S Q H E S S S S S S S S S S S S S S S S
----------------------------------|-----------------------|----------------------------------|
----------------------------------|-----------------------|----------------------------------|
----------------------------------|-----------------------|----------------------------------|
----------------------------------|-----------------------|----------------------------------|
--7-5-3-------7-5-3-------7-5-3---|------5----L-----------|--8-7-5-------8-7-5-------8-7-5---|
--------6-5-3-------6-5-3-------6-|--5-3------------------|--------8-6-5-------8-6-5-------8-|


S S Q H E S S S S S S S S S S S S S S S S S S Q H E
-----------------------|----------------------------------|-----------------------||
-----------------------|----------------------------------|-----------------------||
-----------------------|----------------------------------|-----------------------||
-----------------------|----------------------------------|-----------------------||
------7----L-----------|--8-7-5-------8-7-5-------8-7-5---|------7----L-----------||
--6-5------------------|--------8-6-5-------8-6-5-------8-|--6-5------------------||






Lick for tonight 23rd August. We're still practising our sweeping lick (Lick 13) so expect that too ! cool.gif


--------------------
Go to the top of the page
 
+Quote Post
Ivan Milenkovic
post Aug 23 2011, 09:12 PM
Post #13


Instructor
Group Icon

Group: GMC Instructor
Posts: 25.396
Joined: 20-November 07
From: Belgrade, Serbia
Member No.: 3.341



Nice licks man, cool for you to keep a log! smile.gif


--------------------
- Ivan's Video Chat Lesson Notes HERE
- Check out my GMC Profile and Lessons
- (Please subscribe to my) YouTube Official Channel
- Let's be connected through ! Facebook! :)
Go to the top of the page
 
+Quote Post
Ben Higgins
post Oct 11 2011, 01:48 PM
Post #14


Instructor
Group Icon

Group: GMC Instructor
Posts: 12.654
Joined: 11-March 10
From: England
Member No.: 9.820



Lick 15 - Inside - Outside Picking

     S S S S  S S S S  S S S S  S E  S    S S S S S S S S S S S S S E  S  
E||-------------------------------------|---------------------------------|
B||-------------------------------------|---------------------------------|
G||-------------------------------------|---------------------------------|
D||-------------------------------------|---------------------------------|
A||--10---7---10---7---10---7---10------|--9---5---9---5---9---5---9------|
E||-----8---8----8---8----8---8---------|----7---7---7---7---7---7--------|


S S S S S S S S S S S S S E S S S S S S S S S S S S S S E S
---------------------------------|---------------------------------||
---------------------------------|---------------------------------||
---------------------------------|---------------------------------||
---------------------------------|---------------------------------||
--7---3---7---3---7---3---7------|--5---2---5---2---5---2---5------||
----5---5---5---5---5---5--------|----3---3---3---3---3---3--------||




--------------------
Go to the top of the page
 
+Quote Post
Ben Higgins
post Nov 29 2011, 04:17 PM
Post #15


Instructor
Group Icon

Group: GMC Instructor
Posts: 12.654
Joined: 11-March 10
From: England
Member No.: 9.820



Lick 16



|--3-| |--3-| |--3-| |--3--| |--3--| |--3--| |--3--| |--3--| --
S S S S S S S S S S S S S S S S S S S S S S S S
E||-------------------------------------------------------------13----13-|----||
B||-------------------------------------------12----12-15-12-15----15----|----||
G||-------------------------10----10-13-10-13----13----------------------|----||
D||----------9----9-12-9-12----12----------------------------------------|----||
A||--11-8-11---11--------------------------------------------------------|----||
E||----------------------------------------------------------------------|----||







--------------------
Go to the top of the page
 
+Quote Post
Ben Higgins
post Dec 27 2011, 06:21 PM
Post #16


Instructor
Group Icon

Group: GMC Instructor
Posts: 12.654
Joined: 11-March 10
From: England
Member No.: 9.820



Lick 17 - Pentatonic Mischief !!

      |--3--|  |--3--|  |--3--|  |--3--|  |--3--|  |--3--|  |--3--|  |--3--|  
S S S S S S S S S S S S S S S S S S S S S S S S
E||--13-10----------10-13-10----------10-13-10----------10-13-10----------10-|
B||--------13-10-13----------13-10-13----------13-10-13----------13-10-13----|
G||--------------------------------------------------------------------------|
D||--------------------------------------------------------------------------|
A||--------------------------------------------------------------------------|
E||--------------------------------------------------------------------------|


|--3--| |--3--| |--3--| |--3--| |--3--| |--3--| |--3--| |--3--|
S S S S S S S S S S S S S S S S S S S S S S S S
--------------------------------------------------------------------------|
--13-10----------10-13-10----------10-13-10----------10-13-10----------10-|
--------12-10-12----------12-10-12----------12-10-12----------12-10-12----|
--------------------------------------------------------------------------|
--------------------------------------------------------------------------|
--------------------------------------------------------------------------|


--------------------
Go to the top of the page
 
+Quote Post
Ben Higgins
post Feb 21 2012, 07:49 PM
Post #17


Instructor
Group Icon

Group: GMC Instructor
Posts: 12.654
Joined: 11-March 10
From: England
Member No.: 9.820



Lick 18 - Pedal Tone Lick 1

Attached Image

Lick 19 - Pedal Lick 2

Attached Image


--------------------
Go to the top of the page
 
+Quote Post
Ben Higgins
post Feb 28 2012, 07:48 PM
Post #18


Instructor
Group Icon

Group: GMC Instructor
Posts: 12.654
Joined: 11-March 10
From: England
Member No.: 9.820



Lick 20

Attached Image


--------------------
Go to the top of the page
 
+Quote Post
Ben Higgins
post Apr 30 2012, 10:11 AM
Post #19


Instructor
Group Icon

Group: GMC Instructor
Posts: 12.654
Joined: 11-March 10
From: England
Member No.: 9.820



Hey Guys, string skipping licks coming your way for tomorrow night's chat, 1st May ! Get acquainted ! wink.gif

Lick 21

To be played with strict alternate picking, starting always on a down stroke.

Attached Image

Attached File  Lick_21.gp5 ( 2.09K ) Number of downloads: 93


Lick 22


Attached Image
Attached File  Lick_22.gp5 ( 2.24K ) Number of downloads: 82


Lick 23

Attached Image
Attached File  Lick_23.gp5 ( 2.07K ) Number of downloads: 85



This post has been edited by Ben Higgins: Apr 30 2012, 10:27 AM


--------------------
Go to the top of the page
 
+Quote Post
Ben Higgins
post May 8 2012, 08:58 AM
Post #20


Instructor
Group Icon

Group: GMC Instructor
Posts: 12.654
Joined: 11-March 10
From: England
Member No.: 9.820



Lick 24 - Tuesday 8th May 2012

This is a useful picking pattern that is very 'Paul Gilbert'. You can use it on its own or to set up even longer runs. We will start on a down stroke and when we hit the B string it will be with an up stroke, just coming after a down. This will make it 'outside' picking ! smile.gif

Attached Image

Attached File  Lick_24.gp5 ( 1.86K ) Number of downloads: 93


P.S. I meant to upload these yesterday to give you longer to learn them but it's only a small lick so I'm sure you guys will be ok ! See you later ph34r.gif


--------------------
Go to the top of the page
 
+Quote Post

3 Pages V   1 2 3 >
Reply to this topicStart new topic
1 User(s) are reading this topic (1 Guests and 0 Anonymous Users)
0 Members:

 


RSS Lo-Fi Version Time is now: 24th November 2014 - 06:01 AM