Help - Search - Members - Calendar
Full Version: Backing Track Request And Tabs Correction Aproach & Chromatics Lesson
GMC Forum > Discussion Boards > VINTAGE GMC > Community Activities and Tutorials > Ask an Instructor
coffeeman
Hi Stephane,

I want to upload my take on your great Approach Notes and Chromaticism lesson , and I would like to record it with the original BT , if you can I would apreciate if you can upload it.

On the other hand , I don't know if the tabs on video # 4 are correct.

On the first lick you tabbed:

E E E E H
|-------------------------------|
|--18------------18b---L--------|
|--15br---L--15-----------------|
|-------------------------------|
|-------------------------------|
|-------------------------------|

And I hear this

E E E E H
|-------------------------------|
|--18------------18b---L--------|
|--17br---L--15-----------------|
|-------------------------------|
|-------------------------------|
|-------------------------------|

On the next lick you tabbed :

--------15-18-14s-15-17-20-17-18-16-17-16-15----|
------15---------------------------------------------18-|
--17-----------------------------------------------------|
----------------------------------------------------------|
----------------------------------------------------------|
----------------------------------------------------------|

And I hear :

--------15-18-15-17-14s-15-17-20-17-18-16-17-16-15----|
------15-----------------------------------------------------18-|
--17-------------------------------------------------------------|
------------------------------------------------------------------|
------------------------------------------------------------------|
------------------------------------------------------------------|

In the arpeggio you tabbed :

------------------------10h-13p-10s-15h-18p-15-----------------------|
---------------------11-----------------------------18p-15---------------|
------------------10----------------------------------------16p-15p-13--|
--10p-8-------12----------------------------------------------------------|
--------10p-8-------------------------------------------------------------|
----------------------------------------------------------------------------|


Q E S S S S E S S E Q Q Q Q
-------------------------------------------|--15-------------------||
--18b----17br--16-15-------------------|-----------------------||
---------------------18-17-15------------|-----------------------||
-------------------------------17-15-17--|-----------------------||
--------------------------------------------|-----------------------||
-------------------------------------------------------------------||

And I hear this:

------------------------10h-13p-10s-15h-18p-15---------------------------------|
---------------------11-------------------------------18p-15-----------------------|
------------------10-------------------------------------------18p-17p-15----------
--10p-8-------12------------------------------------------------------------17-15-|
--------10p-8------------------------------------------------------------------------|
---------------------------------------------------------------------------------------|


Q E S S S S E S S E Q Q Q Q
-------------------------------------------------|--15-------------------||
--18b----17br--16-15-------------------------|-----------------------||
-------------------------18-17-15--------------|-----------------------||
-------------------------------------17-15-17--|-----------------------||
--------------------------------------------------|-----------------------||
--------------------------------------------------|-----------------------||

Thanks a lot Stephane , this is an awesome lesson , keep them coming please!
Stephane Lucarelli
Sure! I'm glad you would like to post your take in the REC.

Here's the tab with corrections:


E E E E H
|-------------------------------|
|--18------------18b---L--------|
|--17br---L--15-----------------|
|-------------------------------|
|-------------------------------|
|-------------------------------|


E S S S S S S S S S S S S S S
---------15-18-14-17-14s-15-17-20-17-18-16-17-16-|
------15-----------------------------------------|
--17---------------------------------------------|
-------------------------------------------------|
-------------------------------------------------|
-------------------------------------------------|


S E S S S S S S E S E S S
--15--------------------------------------|
-----18--19--L-x-18-17-16-15--x-15--14-13-|
------------------------------------------|
------------------------------------------|
------------------------------------------|
------------------------------------------|


E E S S E E S S S S S S
-----------------------------------------|
-----13--12-11----11--10p-9p-8-----------|
-------------------------------10p-7-----|
-------------------------------------11p-|
-----------------------------------------|
-----------------------------------------|


|--3--| |---3---| |---3--| |---3--|
S S S S E S S S S S S S S S S S S E
------------------------10h-13p-10s-15h-18p-15--------------------|
---------------------11------------------------18p-15-------------|
------------------10----------------------------------18p-17p-15--|
--10p-8-------12--------------------------------------------------|
--------10p-8-----------------------------------------------------|
------------------------------------------------------------------|


Q E S S S S E S S E Q Q Q Q
---------------------------------------------|--15-------------------||
--18b----17br--16p-15------------------------|-----------------------||
----------------------18p-17p-15-------------|-----------------------||
----------------------------------17p-15-17--|-----------------------||
---------------------------------------------|-----------------------||
---------------------------------------------|-----------------------||



Corrections will be effective in the lesson (TAB & GP files) ASAP!
Thanks for notyfying Andres, looking forward your take wink.gif
coffeeman
Thanks a lot Stephane I really apreciate it, I'll upload my take asap.

Andres.
This is a "lo-fi" version of our main content. To view the full version with more information, formatting and images, please click here.
Invision Power Board © 2001-2014 Invision Power Services, Inc.