Help - Search - Members - Calendar
Full Version: Font Type In Lessons
GMC Forum > Discussion Boards > VINTAGE GMC > Misc. Discussions > GMC site feedback & suggestions
thefireball
I vote that the font used in the "My Notes" be the same as the font used for the tablature. I can't copy and paste tabs into My Notes without the tabs going everywhere. Could we please? smile.gif

Example:

---------------------------|---------------------------|
---------------------------|---------------------------|
---------------------------|---------------------------|
------------------3--3-/5--|------------------5--5-/7--|
------------------5--5-/7--|------------------7--7-/8--|
--0-0-0--0--0--0-----------|--0-0-0--0--0--0-----------|

----------------------------|---------------------------------|
----------------------------|---------------------------------|
----------------------------|---------------------------------|
------------------7--7--/8--|---------------------------------|
------------------8--8-/10--|---------------------------------|
--0-0-0--0--0--0------------|--0-0-0--8--8--8--8--8--8--8--7--|


This is what it looks like when you copy and paste tabs into My Notes.

But the tablature looks more like this:


---------------------------|---------------------------|
---------------------------|---------------------------|
---------------------------|---------------------------|
------------------3--3-/5--|------------------5--5-/7--|
------------------5--5-/7--|------------------7--7-/8--|
--0-0-0--0--0--0-----------|--0-0-0--0--0--0-----------|

----------------------------|---------------------------------|
----------------------------|---------------------------------|
----------------------------|---------------------------------|
------------------7--7--/8--|---------------------------------|
------------------8--8-/10--|---------------------------------|
--0-0-0--0--0--0------------|--0-0-0--8--8--8--8--8--8--8--7--|



This way we can not only put in text, but also tabs.
In the second one I used the "Courier New" font.

If this were implemented, it would be very cool.
I think right now the "Arial" font is being used in My Notes.
Ivan Milenkovic
Have you tried to put [code] tags between the text?
Kristofer Dahl
Very well spotted - can't believe we missed this one, reported!
Kristofer Dahl
This should now be fixed!
thefireball
Awesome job, Kris and/or crew! I just tried it. It's the perfect font for tabbing!! cool.gif
This is a "lo-fi" version of our main content. To view the full version with more information, formatting and images, please click here.
Invision Power Board © 2001-2014 Invision Power Services, Inc.