0 0
Tomorrow's lick is only 0 hours, 0 minutes,
0 seconds away!
Difficulty 4
Stephane Lucarelli

Tuesday's Blues Lick


Pentatonic Legato

Tabs

       E  S   S S   S  S  S  S   S S   S S   S  S  S   
E||---------------------------------------------------|
B||--------------------------------------8h-11p-8-----|
G||-------------8h-10p-8-----------8h-10----------10h-|
D||-------8h-10----------10p-8h-10--------------------|
A||--/10----------------------------------------------|
E||---------------------------------------------------|


  S   S S   S S   S  S  S  S  S   S  S  Q        
--------------8h-11p-8-------------------------||
--------8h-11----------11p-8-----------11b~----||
--8h-10----------------------11p-10p-8---------||
-----------------------------------------------||
-----------------------------------------------||
-----------------------------------------------||

Lick Information

For this pentatonic lick we will use the legato technique. It's a good way to build strength in our fretting hand.

Scales and Theory

Nothing complicated here, just the C pentatonic scale in wich we add the blue note note at the end of the lick. Work slowly and keep your fretting hand
as relaxed as possible!

image