0 0
Tomorrow's lick is only 0 hours, 0 minutes,
0 seconds away!
Difficulty 4
Ivan Milenkovic

Sunday's Blues Lick


Double Lickin'

Tabs

       |--3--|    |--3--|    |--3--|     |--3--|      
       E  E  E    E  E  E    E  E  E  S  T  T  T S S  
E||--------------------------------------------------|
B||--2g3--3-----2g3--3-----2g3--3--------------------|
G||--2g4-----4--2g4-----4--2g4-----4--2h-3p-2p-0-----|
D||----------------------------------------------2---|
A||--------------------------------------------------|
E||--------------------------------------------------|


  |---3---|  |--3--|   |--3--|  |---3--|     |-------3------|  |--3--|  |--3--|   
  E  E    E  E  E  E   Q     E  E   E  E     Q     Q     E  E  E  E  E  E  E  E   
---------------------------------------0--|--3b----3b----0-----0--3--0--L--------|
--2-------0-------------------------3-----|--2b----2b----0--3--0--2--0--L--3--0--|
--2-----0g1------------------0--2b--------|--------------------------------------|
-------------2--0--2~--L~----L------------|--------------------------------------|
------------------------------------------|--------------------------------------|
------------------------------------------|--------------------------------------|


  |---3--|  |---3--|                
  E   E  E  E  E   E    H           
-------------------0----L---------||
--2b--2--0------------------------||
--2b--2--0--------/9~--/L~--------||
------------2--0--/9~--/L~--------||
----------------------------------||
-------------------0----L---------||





Lick Information

In bar number one, we have 3 fast slides on the G and B strings, from 2nd fret, to 3rd and 4th. After that, there are some hammer-ons and pull-offs using the blue note.
In the second bar we fret notes on the B and G strings again, and then ghosted hammered-on notes on the 1st fret G string. After that, there is a whole step bend going up on the high E.
In the third bar, there are a couple of double stops on the high E and B strings.
In the last bar, there are more double stops with some bending, and one slide to the 9th fret D and G string. Make sure you strum high and low E as well, and vibrate the fretted notes.

Scales and Theory

We are using a I-IV-V progression in the key of E. E blues scale is what we will use, and the shuffled rhythm is accented throughout the lick.

image