0 0
Tomorrow's lick is only 0 hours, 0 minutes,
0 seconds away!
Difficulty 4
Stephane Lucarelli

Sunday's Blues Lick


Robben Ford #4

Tabs

     S  S  S  S  S  S  S  S  S  S  S  S  S  S  S  S   
E||-------------11-12-13-12-11-----------------------|
B||-------10-13----------------13-10----13-------11h-|
G||----12----------------------------12----11-12-----|
D||--------------------------------------------------|
A||--------------------------------------------------|
E||--------------------------------------------------|


   S  S  S  S  S S S S S  E.  Q           
-----------------------------------|----||
--10-------------------------------|----||
-----12-11----10---9---8-----------|----||
-----------12----x---x---10--------|----||
-----------------------------------|----||
-----------------------------------|----||

Lick Information

Here's a modern sounding lick in the style of Robben Ford, built with the C minor / C blues and major pentatonic scale.

Scales and Theory

The lick is a mix of the C minor / C blues and major pentatonic scale. It works very well over the C7 chord!

image image