0 0
Tomorrow's lick is only 0 hours, 0 minutes,
0 seconds away!
Difficulty 5
Fernando Culen

Saturday's Blues Lick


Stevie Ray Bending

Tabs

                             |---3--|  |---3--|  |---3--|  |---3--|   
     H.           E  S  S    E   E  E  E   E  E  E   E  E  E   E  E   
E||-----------------------|------0---------0---------0---------0-----|
B||-----------------------|---------0--3b-----0--8b-----0--3b-----0--|
G||------------------0h-1-|--2b--------------------------------------|
D||-----------------------|------------------------------------------|
A||-----------------------|------------------------------------------|
E||-----------------------|------------------------------------------|


  |---3--|  |--3--|                                                        
  E   E  E  E  E  E  T  T  T  T  T  T  T  T  T  T  T  T  T  T  T  T        
---------0----------------------------------------------------------||
------0-----3--0----------------------------------------------------||
--2b--------------2--0h-2p-0h-2p-0h-2p-0h-0h-2p-0h-2p-0h-2p-0h-2p-0-||
--------------------------------------------------------------------||
--------------------------------------------------------------------||
--------------------------------------------------------------------||

Lick Information

Typical Stevie Ray blues lick. He used to use this kind of lick to end a phrase. Pay atention to the bends and your right hand to play it.

Scales and Theory

We're playing in the E major scale.