1 0
Tomorrow's lick is only 0 hours, 0 minutes,
0 seconds away!
Difficulty 3
Stephane Lucarelli

Thursday's Blues Lick


Albert King Lick

Tabs

     |---3---|   |---3---|   |---3--|           
     E   E   E   E   E   E   Q      E     Q     
E||----------------------L----------------L----|
B||-----13--13--16--18---L--18b----18b~---L----|
G||--------------------------------------------|
D||--------------------------------------------|
A||--------------------------------------------|
E||--------------------------------------------|


   |---3---|   |-3-|             |-3|        ---  
   E   E   E   E   Q      Q      E  Q             
----------11--13--13b----11b----11--8~----|-----||
------13----------------------------------|-----||
--12--------------------------------------|-----||
------------------------------------------|-----||
------------------------------------------|-----||
------------------------------------------|-----||

Lick Information

Here's a blues lick in the style of Albert King, built with the C minor pentatonic scale.

Scales and Theory

Nothing fancy here, just the C minor pentatonic scale with typical Albert King string bends.

image