0 0
Tomorrow's lick is only 0 hours, 0 minutes,
0 seconds away!
Difficulty 4
Stephane Lucarelli

Friday's Blues Lick


Pentatonic Power

Tabs

      |---3--|   |--3--|   |--3--|   |--3--|   
      E   E  E   E  E  E   E  E  E   E  E  E   
E||----------8------8-----10--9--8------8-----|
B||-------8-----11-----8------------11-----8--|
G||--10b--------------------------------------|
D||-------------------------------------------|
A||-------------------------------------------|
E||-------------------------------------------|


   |---3---|   |---3--|  |---3---|   |----3----|                         
   E   E   E   E  E   E  E   E   E   E  E      E      W                  
--------------------------------------------------|--------------------||
--11p--8-----------------8------------------------|--------------------||
----------11--10--8------8------------------------|--------------------||
---------------------10-----10p--8----------------|--10----------------||
------------------------------------10--8---------|--------------------||
-------------------------------------------11g12--|--------------------||

Lick Information

Here's a cool & powerful bluesy lick that you can use in many different musical situations.

Scales and Theory

The lick is built with the C Blues scale. Notice the passing tone (Db note) in the middle of the first bar and the major third (E note) at the end of the lick.

image