6 1
Tomorrow's lick is only 0 hours, 0 minutes,
0 seconds away!
Difficulty 5
Fernando Culen

Wednesday's Blues Lick


Bluesy Power

Tabs

                            |---3---|
      S   S  S   S  E    E   S  S   S  S  S  S   S   S  S  
E||------13--------16b--16--13----------------------------|
B||--16b----16p-13-------------16p-13----13---------------|
G||-----------------------------------16----16p-15p-13----|
D||----------------------------------------------------15-|
A||-------------------------------------------------------|
E||-------------------------------------------------------|


      |---3---|
   S  S   S   S  S  S   S  S  S  S   S   S  S  S   S   S  S
------------------------------------------------------------||
------------------------------------------------------------||
--13-15h-16p-15----15p-13-----------------------------------||
----------------15--------15-13-----------------------------||
--------------------------------15s-13p-11----11h-13p-11----||
-------------------------------------------13------------13-||

Lick Information

This a blues/rock lick. You can hear similar licks in albums by Joe Satriani, Kenny Wayne, Zakk Wylde etc. Play it with your heart!

Scales and Theory

We're playing in the F minor pentatonic scale + "blue" note.

image