0 0
Tomorrow's lick is only 0 hours, 0 minutes,
0 seconds away!
Difficulty 4
Stephane Lucarelli

Wednesday's Blues Lick


E Blues

Tabs

     |--3-|     |---3--|  |-----3----|   |---3---|   
     Q    E     E  E   E  E      E   E   E   E   E   
E||-------------------------------------12--15------|
B||---------------------------------12----------14--|
G||-----------------------9--11g13------------------|
D||----------------9--11----------------------------|
A||-------7--9g11-----------------------------------|
E||-------------------------------------------------|


   |---3---|                   
   E   E   E   H.              
--12-------------------------||
------12---------------------||
----------12-----------------||
--------------14~------------||
-----------------------------||
-----------------------------||

Lick Information

Here we mix E major and E minor pentatonic scales to get a typical Blues phrasing.

Scales and Theory

A nice and classic lick with a repetitive motif in E Major pentatonic in the beginning and the minor pentatonic scale at the end.
Try to begin the lick on the first or the third bar of a 12 bars Blues.

image image