0 0
Tomorrow's lick is only 0 hours, 0 minutes,
0 seconds away!
Difficulty 2
Stephane Lucarelli

Tuesday's Blues Lick


Slow Blues

Tabs

      |---3---|   |---3---|                             
      E   E   E   E   E   E   E.       S   S   S  S  S  
E||--------------------------11~---13g14p-13p-11-13----|
B||------------------10--13-------------------------13-|
G||----------10--12------------------------------------|
D||--10--13--------------------------------------------|
A||----------------------------------------------------|
E||----------------------------------------------------|


                     |---3---|               
      S  S  S  S     E   E   E   H           
--11g12------------------------------------||
--------13----------------------13~--------||
-----------12-----------12--14-------------||
--------------15-13g14---------------------||
-------------------------------------------||
-------------------------------------------||

Lick Information

A cool blues lick where we mix the major and the blues pentatonic scales.

Scales and Theory

Notice the C major triad in the beginning of the second bar.

image image