0 0
Tomorrow's lick is only 0 hours, 0 minutes,
0 seconds away!
Difficulty 4
Sinisa Cekic

Sunday's Country Lick


Hybrid Mixin'

Tabs

     A7                                                    
     S  S S E  E.  S E.  E.  S     E   S  E   S  E.  Q     
E||-----------------------------|-------------------------|
B||-----------------------------|-------------------------|
G||------------2-----2---2---4s-|--5------4------2---2----|
D||------------2-----2---2---4s-|--5------4------2---2----|
A||---------0------0------------|-----(0)----(0)----------|
E||--0--3-4---------------------|-------------------------|


  S   E   S  E  Q    E     Q    E  E  H           
------------------------|-----------------------||
---------10--9--8----7--|--6----5--4------------||
------------------------|-------------4b--------||
--7s-11-----10--9----7--|--6----5--4------------||
------------------------|-------------0---------||
------------------------|-----------------------||

Lick Information

Here are some cool hybrid picking variations, lead and rhythm.

Hybrid picking is a technique that involves picking with a pick and one or more fingers alternately or simultaneously.

Scales and Theory

A mixolydian scale.

image