0 0
Tomorrow's lick is only 0 hours, 0 minutes,
0 seconds away!
Difficulty 4
Ivan Milenkovic

Friday's Country Lick


Walking Bass

Tabs


     E  S S E  S S E  E  E  E     E  S S E  S S E  E  E  E     E  S S E  S S E  E  E  E   
E||----------------------------|----------------------------|----------------------------|
B||-----x-x----x-x-------------|--3--x-x-3--x-x-3--3--3--3--|-----x-x----x-x-------------|
G||--2--x-x-2--x-x-2-----------|--2--x-x-2--x-x-2--2--2--2--|--2--x-x-2--x-x-2-----------|
D||--2--x-x-2--x-x-2--2--2--2--|--0--x-x----x-x-0--0--------|--2--x-x-2--x-x-2--2--2--2--|
A||--0-------------0--0--2--4--|---------0------------4--2--|--0-------------0--0--------|
E||---------0------------------|----------------------------|---------0------------4--2--|


  E  S S E  S S E  E  E  E     W                  
----------------------------|-------------------||
----------------------------|-------------------||
----------------------------|--2----------------||
--2--x-x-4--x-x-2--2--2--2--|--2----------------||
--2--x-x-2--x-x-2--2--------|--0----------------||
--0--x-x----x-x-0--0--2--4--|-------------------||

Lick Information

A rhythm country lick with walking bass line and a cool groove. The trick is to strum all the bass strings, and mute all the strings that are not supposed to ring.

Scales and Theory

The rhythm revolves around a I-IV-V progression in the key of A major, using A major scale notes for the bass line.

image