0 0
Tomorrow's lick is only 0 hours, 0 minutes,
0 seconds away!
Difficulty 5
Sinisa Cekic

Tuesday's Country Lick


Triad Runs

Tabs

                  E         A               E         A        
             Q    E   E  E  Q    E     Q    E   E  E  Q    E   
E||-------|-------------------------|-------------------------|
B||-------|-----------------2-------|-----------------2-------|
G||-------|-------0s--1-----2----2--|-------0s--1-----2----2--|
D||-------|-------2---------2----2--|-------2---------2----2--|
A||-------|-------2-----------------|-------2-----------------|
E||-------|--0-----------x----------|--0-----------x----------|


       A7        D               A7        D       B         A         G#m      
  Q    E   E  E  Q    E     Q    E   E  E  Q       S S S E.  S S S E.  S   S S  
-------------------------|----------------------|------------------------------|
-------------------------|----------------------|------7---------5-----------4-|
-------5s--6-----7----6--|-------5s--6-----7----|----8---------6-----------4---|
-------5---------7----7--|-------5---------7----|--9-----9---7-----7---6-------|
--0-----------0----------|--0-----------0-------|------------------------------|
-------------------------|----------------------|------------------------------|


      F#m          E        
  E.  S   S S Q    Q.       
--------------------------||
------------2-------------||
----------2--------1------||
--6---4-------4----2------||
-------------------2------||
-------------------0------||

Lick Information

Chord triads are useful in country, they help create rhythm variations.

Scales and Theory

A triad uses 3 notes from the major or minor scale, the Root (1),the 3rd(3) and the 5th (5). These notes make up a major or minor chord in its simplest form.

image