0 0
Tomorrow's lick is only 0 hours, 0 minutes,
0 seconds away!
Difficulty 5
Stephane Lucarelli

Wednesday's Country Lick


Hot Country

Tabs

     S  S S S S  S S S S  S S S S  S S S    S S S S S  S S S S  S S S S S S S  
E||--------------------------------------|------------------------------------|
B||--------------------------------------|------------------------------------|
G||-------0---3p-0---0------0---3p-0---0-|---------------0--------------------|
D||--3h-5---5------5---3h-5---5------5---|--------0----------3p-0---0---------|
A||--------------------------------------|--3-4-5---4s-5---5------5---3-1-----|
E||--------------------------------------|--------------------------------3-1-|


  W                  
-------------------||
-------------------||
-------------------||
-------------------||
-------------------||
--3----------------||

Lick Information

Here's a cool lick using lots of open strings : It begins with a repetitve motif and ends with the G blues scale. I also use the chicken picking technique: the pick + middle finger

Scales and Theory

It's in the key of G and uses the G Blues scale.

image