0 0
Tomorrow's lick is only 0 hours, 0 minutes,
0 seconds away!
Difficulty 3
Sinisa Cekic

Monday's Country Lick


Third Intervals

Tabs

      Bsus4add13                                                
      S          E.   E   E.   Q     E     Q    Q    Q    Q     
E||--11s--------12---12--11---10-----9--|--7----6----5----4----|
B||--13s--------14---14--13---12----10--|--9----8----7----5----|
G||-------------------------------------|----------------------|
D||-------------------------------------|----------------------|
A||-------------------------------------|----------------------|
E||-------------------------------------|----------------------|


                           E                   A      
  E   E  E   E  E.  E.     Q    E  S E  S S E  Q      
------------------------|---------------------------||
--7s--9--9s--7--5---4---|--3------------------------||
--7s--9--9s--7--6---5---|--4-------------------2----||
------------------------|---------------------------||
------------------------|---------------0-3-4-------||
------------------------|-------0--3-4--------------||

Lick Information

A major lick played with intervals.

Scales and Theory

A major scale.
The third interval is the basis of major and minor chords. There are two different kinds of thirds, major and minor.

image