0 0
Tomorrow's lick is only 0 hours, 0 minutes,
0 seconds away!
Difficulty 5
Sinisa Cekic

Saturday's Country Lick


Hybrid Rhythm

Tabs

     A7            D5                  A7                        
     E  T  E  S E  E  S E  S S S    E  T  E  S E  E  E  S  E  S  
E||------------------------------|------------------------------|
B||------------------------------|------------------------------|
G||-----5s-6----6--7----7----6-7-|-----5s-6----6--4--6--4s-6--0-|
D||-----4s-5----5--5----5----5---|-----4s-5----5--5--5--5--5----|
A||--0--------0-------0----0-----|--0--------0------------------|
E||------------------------------|------------------------------|


                D5          E                                      A7   
                                    T T   T   T                         
  E  T  E  S E  E  S E  S S E     S S S S S   S S  S S  S S S S  S E    
-------------------------------|--------------------------------------||
-------------------------------|--------------------------------------||
-----5s-6----6--7----7----7----|----------------9----8----7---5s-6----||
-----4s-5----5--5----5----5----|--------7-9s-11---11---10---9------7--||
--0--------0-------0----0------|--7-8-9-------------------------------||
----------------------------0--|--------------------------------------||

Lick Information

Hybrid picking is a cross over between regular picking and finger picking. Alternately playing this technique contributes to the vibrancy and playfulness of a whole song. You need to focus on getting your pick to pluck the strings in time with your fingers, which is sometimes harder than it sounds. Pay attention to the timing, since the majority of notes occurs in counter rhythm (=syncopation).

Scales and Theory

A mixolydian scale

image