0 0
Tomorrow's lick is only 0 hours, 0 minutes,
0 seconds away!
Difficulty 4
Ivan Milenkovic

Saturday's Country Lick


Chromascend!

Tabs

     S S S S S S S E  S S S S S S S  
E||---------------------------------|
B||---------------------------------|
G||-----------------------------4-5-|
D||----------4---4-5----4-5-6-7-----|
A||--4-5-6-7---7------7-------------|
E||---------------------------------|


  S S S S S S S S S S S E    S S S    E  E  H.              
----------------5---7---7br--5-----|--5-----3-------------||
----5-7---5-7------------------7-5-|--------2-------------||
--6-----6--------------------------|--------2-------------||
-----------------------------------|--------2-------------||
-----------------------------------|--------0~------------||
-----------------------------------|----------------------||

Lick Information

A Chromatic lick with a nice contra-beat effect and character, using pauses.

Scales and Theory

We are using A major pentatonic as a basis, but we are using almost every passing note as we ascend. So we are in effect using a chromatic scale.

image image