0 0
Tomorrow's lick is only 0 hours, 0 minutes,
0 seconds away!
Difficulty 5
Sinisa Cekic

Thursday's Country Lick


Pick N Pluck

Tabs

     C                                                
     E  E  E  E  E  E  E  E     E  E  E  E  E  E  E   
E||--------------------------|-----------------------|
B||--------5--------5--------|--5--------5--------5--|
G||--------5--------5--------|--5--------5--------5--|
D||--5--8-----5--8-----5--8--|-----5--8-----5--8-----|
A||--------------------------|-----------------------|
E||--------------------------|-----------------------|


        F7                                                 C                  
  E  E  E  E  E  E  E  E     E  E  E  E  E  E  E     E  E  E  E  E  E  E  E   
--------5--------5--------|--5--------5--------5--|--------------------------|
--------6--------6--------|--6--------6--------6--|--------5--------5--------|
--5--8-----5--8-----5--8--|-----5--8-----5--8-----|--------5--------5--------|
--------------------------|-----------------------|--5--8-----5--8-----5--8--|
--------------------------|-----------------------|--------------------------|
--------------------------|-----------------------|--------------------------|


                                 G7                                             
  E  E  E  E  E  E  E     E   E  E  E   E  E  E   E     E  E   E  E  E   E  E   
-----------------------|---------7---------7---------|--7---------7---------7--|
--5--------5--------5--|---------8---------8---------|--8---------8---------8--|
--5--------5--------5--|--7--10-----7--10-----7--10--|-----7--10-----7--10-----|
-----5--8-----5--8-----|-----------------------------|-------------------------|
-----------------------|-----------------------------|-------------------------|
-----------------------|-----------------------------|-------------------------|


  C          
  H          
--8--------||
--8--------||
--9--------||
-----------||
-----------||
-----------||

Lick Information

Here is a cool rhythm played with a hybrid technique.

In this example we have a basic country type of rhythm, using the pick and fingers technique. When you practice this, use a metronome to keep good timing. Also, try to get your picked and plucked notes equally loud.

Scales and Theory

C major scale.

image