0 0
Tomorrow's lick is only 0 hours, 0 minutes,
0 seconds away!
Difficulty 3
Stephane Lucarelli

Saturday's Country Lick


Rockabilly Rhythm

Tabs

     A7                                               
     PM PM PM PM PM PM PM PM PM PM PM PM PM PM PM PM  
     S  S  S  S  S  S  S  S  S  S  S  S  S  S  S  S   
E||--------------------------------------------------|
B||--------------------------------------------------|
G||--------------------------------------------------|
D||--------------2--2--4--4--5--5--4--4--2--2--4--4--|
A||--0--0--3h-4--------------------------------------|
E||--------------------------------------------------|


  PM PM PM PM PM PM PM PM PM PM PM PM PM PM PM PM   
  S  S  S  S  S  S  S  S  S  S  S  S  S  S  S  S    
--------------------------------------------------||
--------------------------------------------------||
--------------------------------------------------||
--------------2--2--4--4--5--5--4--4--2--2--4--4--||
--0--0--3h-4--------------------------------------||
--------------------------------------------------||

Lick Information

Here's a classic Country/Rockabilly style rhythm played in A.

Scales and Theory

It's in the key of A and built around the A mixolydian mode in wich we add the minor third (C note) as a passing tone. You could easily transpose this riff to a country blues in A with the following chords : A, D and E.

image