0 0
Tomorrow's lick is only 0 hours, 0 minutes,
0 seconds away!
Difficulty 5
Sinisa Cekic

Thursday's Country Lick


Stylish Country

Tabs

     A7                                                 
     S  S E  E.  E  E  E.  E     S Q    E.  Q    E  E   
E||---------------------------|------------------------|
B||---------------------------|------------------------|
G||--------------2-----2---2--|--L------2--------------|
D||--------------2-----2---2--|--L------2--------4-----|
A||----------0------0---------|----0--------0-------0--|
E||--0--3-4-------------------|------------------------|


                         Dm6                 D#/5-/F#       
  S Q    E   E  E  E  E  S      S S E   Q    Q        Q     
-----------------------------|-----------------------------|
-----------------------------|-----------------------------|
---------5s--6-----5-----4---|--L-L-4--------2-------------|
----5----4s--5-----4-----3---|--L-L-3--------1-------------|
--L-------------x-----x------|-----------------------------|
-----------------------------|---------\2-------------1----|


  F7            A7                                    
  E  S E.  Q    E.  E  S    T S. E  S Q    Q    E  S  
-------------------------|---------------------------|
-------------------------|---------------------------|
--2--L-2--------2------2-|--L-L--2--L------2---------|
--1--L-1--------2------2-|--L-L--2--L------2-------4-|
-----------0--------0----|------------0---------0----|
-------------------------|---------------------------|


                                 Dm6               D#/5-/F#      
  T T S S E.  E   E  E  E  E     T   S. S E   Q    Q        E.   
------------------------------|---------------------------------|
------------------------------|---------------------------------|
--------------5s--6-----5-----|--4---L--L-4--------2------------|
--L-L-----5---4s--5-----4-----|--3---L--L-3--------1------------|
------x-L------------x-----x--|---------------------------------|
------------------------------|--------------\2-------------1---|


      F7          A5     
  T T S  Q.     S Q      
-----------------------||
-----------------------||
------2--L------L-2----||
------1--L------L-2----||
------------------0----||
--L-L------------------||

Lick Information

Modern country school based on musicians such as Brad Paisley, George Strait or Toby Keith... When flirting with other genres or subgenres, country playing may sound more modern and more interesting!

Scales and Theory

A Mixolydian

image