0 0
Tomorrow's lick is only 0 hours, 0 minutes,
0 seconds away!
Difficulty 4
Stephane Lucarelli

Monday's Country Lick


Country Lead 2

Tabs

     S S  S S S S  S S S S S  S S S  S S  
E||--------------------------------------|
B||--------------------3-----------------|
G||-----------0------0-----3p-0---4p-0---|
D||---------0---4s-5-----5------x------x-|
A||----1s-2------------------------------|
E||--3-----------------------------------|


  S  S S S  S S S  S S S S  S S  S   S  S    W                  
------------------------------------------|-------------------||
------------------------------------------|-------------------||
--5p-0---6p-0---7p-0-----3h-4-------------|-------------------||
-------x------x------x-x------5p-3--------|-------------------||
-----------------------------------1g3p-1-|-------------------||
------------------------------------------|--3----------------||

Lick Information

Here's another country lick in G using some open strings and chromaticism.

Scales and Theory

This lick is in the key of G and we use a mix of the G minor/blues and major pentatonic scales.

image image