0 0
Tomorrow's lick is only 0 hours, 0 minutes,
0 seconds away!
Difficulty 4
Stephane Lucarelli

Thursday's Jazz Lick


Coltrane Style

Tabs

      E   E   E  E   E  E   E   E      E   E   E   E   E   E   E   E   
E||--------------------------------|--------------10------------------|
B||--------------------------------|----------12------13--------------|
G||--------------------------------|------12--------------12--10------|
D||--10----------9--12--9--10--12--|--13--------------------------13--|
A||------10--12--------------------|----------------------------------|
E||--------------------------------|----------------------------------|


   E  E  H.             
----------------------||
----------------------||
--12------------------||
----------------------||
----------------------||
----------------------||

Lick Information

This lick, inspired by John Clotrane, outlines the F7#11 sounds.

Scales and Theory

Here we play the C melodic minor scale over the F7 chord : we're using the lydian dominant mode 1, 2, 3, #4, 5, 6, 7 .

image