0 0
Tomorrow's lick is only 0 hours, 0 minutes,
0 seconds away!
Difficulty 3
Stephane Lucarelli

Friday's Jazz Lick


Chord Substitution

Tabs

     FM7                 Fm7b5               Em7               
     W                   W                   W                 
E||--8----------------|--7----------------|--7----------------|
B||--6----------------|--6----------------|--5----------------|
G||--9----------------|--8----------------|--7----------------|
D||--7----------------|--6----------------|--5----------------|
A||-------------------|-------------------|-------------------|
E||-------------------|-------------------|-------------------|


                      FM7                 Fm7b5               Em7               
  W                   W                   W                   W                 
--L----------------|--5----------------|--4----------------|--3----------------|
--L----------------|--5----------------|--4----------------|--3----------------|
--L----------------|--5----------------|--4----------------|--4----------------|
--L----------------|--3----------------|--3----------------|--2----------------|
-------------------|-------------------|-------------------|-------------------|
-------------------|-------------------|-------------------|-------------------|


  W                  
--L----------------||
--L----------------||
--L----------------||
--L----------------||
-------------------||
-------------------||

Lick Information

In this lick we will use some simple but efficient chord substitutions to play over the classic II V I.

Scales and Theory

We are in the key of C and the chords are D-7, G7alt, and CM7.
The substitutions are:
D-7 > FM7 = D minor 9 sound
G7alt > Fm7b5 = G7b9b13 sound
CM7 > Em7 = CM9 sound

image