0 0
Tomorrow's lick is only 0 hours, 0 minutes,
0 seconds away!
Difficulty 4
Ivan Milenkovic

Monday's Jazz Lick


Hammerin' Chroma

Tabs

      |--3--|   |---3---|     |--3--|  |--3-|     |--3-|  |--3--|             
      Q     E   S   S   S  E  Q     E  Q    E     Q    E  E  E  E   H         
E||--12----------------------------------------|-----------------------------|
B||--------13--12p-11p-10----------------------|-----------------------------|
G||-----------------------10--9----------------|-----------------------------|
D||--------------------------------10--7-------|-----------------------------|
A||-----------------------------------------8--|--7-------5--7--8~--L--------|
E||--------------------------------------------|-------8---------------------|


  |--3-|            |--3-|  |--3-|                         
  Q    E  S  S  S S Q    E  Q    E     W                   
------------------5-----------------|--------------------||
-------5--6h-7h-8-------------------|--------------------||
--------------------7----5----------|--------------------||
----------------------------7----5--|--7~----------------||
------------------------------------|--------------------||
------------------------------------|--------------------||

Lick Information

This lick uses pull-offs and hammer-ons to cover chromatic ground, while outlining arpeggiated chords.

Scales and Theory

This lick is in the key of F, and follows a I-VI-V-I progression. The goal is to keep the swing going, while playing small sixteenth triplets.

image