0 0
Tomorrow's lick is only 0 hours, 0 minutes,
0 seconds away!
Difficulty 5
Stephane Lucarelli

Sunday's Jazz Lick


Walking Bass

Tabs

     E  E  Q    Q    Q       E  E  Q    Q    Q       Q    Q    E  E  Q     
E||-----------------------|-----------------------|-----------------------|
B||-----5-----------------|-----5-------5----4----|--3------------8-------|
G||-----5-----------------|-----4-------5----4----|--4------------7-------|
D||-----3-----------------|-----3-------3----3----|--2------------9-------|
A||--5-----3----2---------|--------2----5----4----|--3----2----7----------|
E||------------------4----|--3--------------------|------------------6----|


  Q    Q    Q    Q        W                  
----------------------|--------------------||
--6--------------8----|--10----------------||
--6--------------9----|--10----------------||
--5--------------8----|---9----------------||
----------------------|--------------------||
--5----6----8----9----|--10----------------||

Lick Information

Here's an example of walking bass in the key of C.

Scales and Theory

The chord progression is II V I VI7alt : D-7 / G7 / CM7 / A7alt.
The walking bass is usually made up of arpeggios, scale passages and passing notes. Approach tones can be used between chord tones.

image