0 0
Tomorrow's lick is only 0 hours, 0 minutes,
0 seconds away!
Difficulty 5
Stephane Lucarelli

Tuesday's Jazz Lick


Ted Greene Chords

Tabs

     F6/9     F6/9         D-11      D-7          G-9      G9sus4    
     H        H            H         H            H        H         
E||--------------------|-------------8--------|--10--------8--------|
B||--6--------8--------|--10--------10--------|--10--------8--------|
G||--5--------7--------|--10--------10--------|--10--------7--------|
D||--5--------7--------|--10--------12--------|---8--------7--------|
A||--5--------8--------|--10------------------|---------------------|
E||--------------------|----------------------|---------------------|


  C7sus4   C13b9       FM7                
  H        H           W                  
-----------5--------|--5----------------||
--6--------5--------|--5----------------||
--7--------6--------|--5----------------||
--8--------8--------|--7----------------||
--------------------|--8----------------||
--8--------8--------|-------------------||

Lick Information

Here are some chords inspired by the great Ted Greene, the "chord chemist".

Scales and Theory

We are in the key of F and the chord progression is the classic I vi ii V with two chords per beat. Go ahead and transpose it to any key!

image