0 0
Tomorrow's lick is only 0 hours, 0 minutes,
0 seconds away!
Difficulty 4
Stephane Lucarelli

Wednesday's Jazz Lick


Bebop Scale

Tabs

      S  S  S  S  S  S   S  S  S S  S S S  S  S S  
E||--13-12-11-10--------------------------------8-|
B||--------------13-11p-10-------------------10---|
G||------------------------12-10-9s-8-x-7-10------|
D||-----------------------------------------------|
A||-----------------------------------------------|
E||-----------------------------------------------|


     E  E     E   Q    Q      
--------8-------------------||
--9g10-----9g10---L---------||
----------------------------||
----------------------------||
----------------------------||
----------------------------||

Lick Information

This lick outlines the F7 sound with the use of the F Bebop Dominant scale.
This 8 notes scale gives you the ability to play chord tones on all downbeats.

Scales and Theory

The Bebop Dominant Scale is basically a Mixolydian mode with an extra note : a natural 7th.
It's a dominant scale and has the same function in a key as the Mixolydian scale : it can be played on the dominant and the sub dominant chord.

image