0 0
Tomorrow's lick is only 0 hours, 0 minutes,
0 seconds away!
Difficulty 5
Stephane Lucarelli

Saturday's Jazz Lick


B Flat Mixolydian

Tabs

      Q.     E   E  E  E   E     E  E   E  E  E   E  E  E   
E||--11------9--10--9--8------|----------------------------|
B||-----------------------11--|--9--8----------------------|
G||---------------------------|--------10--8--7------------|
D||---------------------------|------------------10--8--7--|
A||---------------------------|----------------------------|
E||---------------------------|----------------------------|


  E  E  E  E  E  E  E  E       Q    Q    Q    Q            

|-------------------------|------------------------|-----||
|-------------------------|------------------------|-----||
|-------------------5--8--|--6g7-------------------|-----||
|-6-----5--------6--------|------------------------|-----||
|----x-----7--8-----------|------------------------|-----||
|-------------------------|------------------------|-----||

Lick Information

Here's an interesting lick to add to your arsenal! It outlines the Bb7 sounds, with some passing tones (non-diatonic notes) to spice up the mixolydian scale. Transpose the phrase to other keys!

Scales and Theory

The lick is built around the Bb Mixolydian scale and begins with variouws chromatic passing tones. Notice the F-7 arpeggio at the end and the resolution on the third (D note) of the Bb7 chord.

image