0 0
Tomorrow's lick is only 0 hours, 0 minutes,
0 seconds away!
Difficulty 4
Stephane Lucarelli

Saturday's Jazz Lick


Bebop II V I

Tabs

     D-7                            G7                       
     |---3--|                                                
     E   E  E  E  E  E  E  E  E     E  E  E  E  E  E  E  E   
E||---------------------5--8--6--|--7-----------------------|
B||------------5--8--6-----------|-----8--6--5--------------|
G||---------5--------------------|--------------7-----------|
D||------7-----------------------|-----------------6--5-----|
A||--8---------------------------|-----------------------8--|
E||------------------------------|--------------------------|


  CM7                
  W                  
-------------------||
-------------------||
-------------------||
-------------------||
--7----------------||
-------------------||

Lick Information

Here's a bebop sounding lick to play over a II V I progression in the key of C.

Scales and Theory

We are using the C Major scale. Notice the F Major arpeggio usage over the D-7 chord and the addition of the Ab tone (b9) over the G7 chord to add some tension and the resolution on the third of the M7 chord.

image