0 0
Tomorrow's lick is only 0 hours, 0 minutes,
0 seconds away!
Difficulty 4
Ivan Milenkovic

Tuesday's Jazz Lick


Smooth Jazz Blues

Tabs

                    |---3--|     |--3-|  |--3-|   |--3--|  |---3---|    
     Q    Q    Q    Q      E     Q    E  Q    E   Q     E  Q       E    
E||---------------------------|----------------------------8-----------|
B||---------------------------|---------------8--10----11-------9g10\--|
G||---------------------------|-------6--7-----------------------------|
D||---------------------------|--8-------------------------------------|
A||----------------------6g7--|----------------------------------------|
E||---------------------------|----------------------------------------|


   |--3-|  |--3-|  |--3-|  |--3-|      |--3-|  |--3-|  |--3-|  |--3--|   
   Q    E  Q    E  Q    E  Q    E      Q    E  Q    E  Q    E  Q     E   
------------------------6----------|--------------------------------10--|
---L----8------------------8----9--|--10--------------------------------|
-----------9----7--6---------------|--------7-------7--L----L--L-----7--|
-----------------------------------|------------------------------------|
-----------------------------------|------------------------------------|
-----------------------------------|------------------------------------|


  |--3-|  |--3--|                     
  Q    E  E  E  E  Q     Q            
-------8-----6-----5~----L----|-----||
----------------8-------------|-----||
-------5----------------------|-----||
------------------------------|-----||
------------------------------|-----||
------------------------------|-----||

Lick Information

A smooth D minor lick with ghost notes, a slight touch of blues vibe and hybrid octave picking.

Scales and Theory

This progression is a II-V-I in Dm and we play the D minor blue note as well. We start with the 7th position in an Em7b5 arpeggio. The rhythm is swing inspired most of the time.

image