0 0
Tomorrow's lick is only 0 hours, 0 minutes,
0 seconds away!
Difficulty 4
Stephane Lucarelli

Wednesday's Jazz Lick


John Scofield Style

Tabs

      E   S  S S S   S  S S  S  S   S S   S  S  S  
E||--11--------8----------------------------------|
B||--------------8h-11----8-----------8h-11-------|
G||------10p-8------------------------------10p-8-|
D||--------------------10---10p-8h-10-------------|
A||-----------------------------------------------|
E||-----------------------------------------------|


   S  S   S  S    Q    H          
--------------------------------||
--------------------------------||
------------10p-8g9-------------||
--------------------------------||
--10p-8h-10---------------------||
--------------------------------||

Lick Information

Here's a funky jazz lick in the style of John Scofield, using the C minor pentatonic scale.

Scales and Theory

Here we play the C minor pentatonic scale with "wide" intervals : we skip strings to get a more open intervallic sound.

image