0 0
Tomorrow's lick is only 0 hours, 0 minutes,
0 seconds away!
Difficulty 4
Ivan Milenkovic

Saturday's Jazz Lick


Descending Thirds

Tabs

              |--3-|  |--3-|       |---3--|  |--3-|  |--3-|    |---3--|   
     H        Q    E  Q    E       Q      E  Q    E  Q    E    Q      E   
E||---------------------------|--------------6----6----------------------|
B||---------------------------|--5g6----5g6--6----6--8----8--5g6----5g6--|
G||---------------------------|--6g7----6g7----------8----8--6g7----6g7--|
D||------------------------8--|------------------------------------------|
A||---------------------------|------------------------------------------|
E||---------------------------|------------------------------------------|


  |--3-|  |--3-|  |--3-|  |--3-|                                         
  Q    E  Q    E  Q    E  Q    E     Q    H.                             
----------------------------------|--------------------|---------------||
----------------------------------|-------8------------|---------------||
--7----7--5----5------------------|-------7------------|---------------||
--8----8--7----7--5-------7----8--|--L----8------------|---------------||
------------------5----5--6----8--|--L----8------------|---------------||
----------------------------------|--------------------|---------------||

Lick Information

Involves 3rd intervals, descending to Bb. The lick has a blues/funky character to it, because of the static backing chord.

Scales and Theory

This lick is in the key of Bb and uses a swing feel throughout. The harmony is Bb6, and a 9th interval is added at the end.

image