0 0
Tomorrow's lick is only 0 hours, 0 minutes,
0 seconds away!
Difficulty 4
Stephane Lucarelli

Saturday's Jazz Lick


Altered Voicings

Tabs

     H        H           H        H           H        H         
E||--------------------|--8--------6--------|--4--------3--------|
B||--8--------6--------|--6--------6--------|--6--------3--------|
G||--7--------7--------|--7--------7--------|--7--------5--------|
D||--6--------6--------|--6--------6--------|-----------6--------|
A||--7--------7--------|--7--------7--------|--7--------7--------|
E||--------------------|--------------------|--------------------|


  H        H          
-----------0--------||
--6--------0--------||
--5--------6--------||
--6--------6--------||
--5--------0--------||
--------------------||

Lick Information

In this lick we will take a look at several useful altered voicings.

Scales and Theory

This E7 altered chord is basicaly a seventh chord in which we replace one or more diatonic notes by non diatonic notes: the alterations are b9, #9, #11 and b13.

image