0 0
Tomorrow's lick is only 0 hours, 0 minutes,
0 seconds away!
Difficulty 4
Ivan Milenkovic

Sunday's Jazz Lick


Gipsy Jazz

Tabs

               |--3--|  |--3--|      |--3-|  |--3-|   |--3-|  |--3--|   
     Q    Q    E  E  E  E  E  E      Q    E  Q    E   Q    E  Q     E   
E||---------------------------7--|--10----9--8----7--------------------|
B||------------------------8-----|-------------------10----7--8----10--|
G||------------------8--9--------|-------------------------------------|
D||------------------------------|-------------------------------------|
A||------------------------------|-------------------------------------|
E||------------------------------|-------------------------------------|


  |--3-|  |--3-|                  |--3--|  |--3--|  |---3--|  |---3--|   
  Q    E  Q    E  H               Q     E  E  E  E  E   E  E  E   E  E   
--7----7--L----7--L--------|--10g12\----7-------------------------------|
---------------------------|---------------8--7-------------------------|
---------------------------|---------------------9--8-------------------|
---------------------------|---------------------------10--9--7---------|
---------------------------|-------------------------------------10--9--|
---------------------------|--------------------------------------------|


  Q.      Q    Q    E    
---------10------------||
----------8------------||
----------9------------||
----------9------------||
--7-------7------------||
-----------------------||

Lick Information

A gipsy jazz-sounding lick using E harmonic minor, and a cool ghost slide effect.

Scales and Theory

Beebop-styled gipsy jazz phrase in E harmonic minor. The first part features a chromatic passage, the second part a descending arpeggio in the harmonic minor position on the 7th fret. The rhythm has a swing feel to it, using mostly of eight note triplets.

image