0 0

Bass Lesson 2 - Right Hand Fingering

by Hrvoje Maretic

Lesson step:

  • main
  • Members only1
  • Members only2
  • Members only3
  • Members only4
  • Difficulty: 3
  • Lesson
  • My notes
  • Statistics

  • This is an example in which you will be able to learn some basic and common things used in playing fingerstyle.
    Correct accents, consistancy, skiping the string when playing octaves, and rake the strings with one finger when you're sweeping from higher strings to lower.

    Watch this video and look for explainations in slow videos. I hope it will help you!
    If you have any comments or critics, feel free to notice me.

    This is main video tab:

    G|--------------------------7------------5-----|
    D|----------------------------4------------2---|
    A|--------------------5-5-5-----5--3-3-3-----3-|
    E|--0-0-0-0--0-0-0-0---------------------------|
    |:

    G|---------------------------------------------------|
    D|-----------------2------------5---5--------3--3----|
    A|-----------0-2-3---3-2-----------------------------|
    E|--0-0-0-0---------------3-3-3---3----1-1-1---1---0-|
    :|2x


    G|------------------------------------------------------------------|
    D|--------------------------------------------------3-2-------------|
    A|------------------2--2-2-2-2-2-2--3--3-3-3-3-3-3------5-3-2-------|
    E|--0--0-0-0-0-0-0--------------------------------------------5-3-2-|
    |:

    G|--------------------------------------------------------------------|
    D|--------------------------------------------------------------------|
    A|------------------2--2-2-2-2-2-2------------------3--3-3\\8--8-8----|
    E|--0--0-0-0-0-0-0------------------1--1-1-1-1-1-1------------------0-|
    :|2x

    * \\ slide down

    Related lessons:

  • Login to use my notes. No GMC account? Register here.
  • Members practicing this lesson

    REC Takes

      This lesson does not have any REC takes yet.
      Here is how to submit one.

    Lesson views

    • Total views: 6018
    • Member views: 248
    • Guest views: 5770