Profile
Personal Photo
Rating
 
Options
Options
Personal Statement
karmstrong9 doesn't have a personal statement currently.
Personal Info
karmstrong9
GMC:er
Age Unknown
Male
Glendale Arizona
Birthday Unknown
Interests
No Information
Statistics
Joined: 8-January 08
Profile Views: 1.996*
Last Seen: 28th March 2012 - 05:27 AM
Local Time: Feb 23 2019, 11:46 AM
6 posts (0 per day)
Contact Information
* Profile views updated each hour

karmstrong9

Members

*


Topics
Posts
Comments
Friends
My Content
26 Mar 2008


Hi,

This is just short lesson on finger tapping that I have been playing around with.
This lesson is just learning the pattern and you should be able to use it to create your own songs.
Have fun with this one!!!

------------------------------------------------------------------------------------------------------------------------------
2 HAND TAPPING - SHORT LESSON

MAIN SONG
Attached File  2_hand_tapping_short_lesson.avi ( 3.13MB ) Number of downloads: 1387


GUITAR PRO
Attached File  2_hand_tapping_short_lesson.gp5 ( 2.26K ) Number of downloads: 410


PDF
Attached File  2_hand_tapping_short_lesson.pdf ( 86.63K ) Number of downloads: 463


------------------------------------------------------------------------------------------------------------------------------

PART 1
You will mostly be using your index finger and middle finger on the left hand and index on the right (opposite for left hand players) Start off slowy and then try to build up speed. You can play it as fast or slow as you want.

Attached File  2_hand_tapping_short_lesson___part_1.avi ( 4.9MB ) Number of downloads: 477


This is all straight tapping
Repeat 4 times

E|----------------------------------------------------------------------------------------------------------------------------------------|
B|----------------------------------------------------------------------------------------------------------------------------------------|
G|-------7---0--4--------7---0--------5---0---2---------5----0------------------------5---0---------------------------5---0-------|
D|--5----------------5------------3-----------------3------------------5---0---2---------------------5---0---2----------------------|
A|-------------------------------------------------------------------3---------------3------------3------------------3------------------|
E|----------------------------------------------------------------------------------------------------------------------------------------|


PART 2
Attached File  2_hand_tapping_short_lesson___part_2.avi ( 4.46MB ) Number of downloads: 348


(Repeat this part 3 times)

E|-----------------------------------------------------------------------------------------------------------------------------------|
B|-----------------------------------------------------------------------------------------------------------------------------------|
G|-------5---0---2------5---0------------------------5---0-----------------------------------------------------------------------|
D|---3---------------3---------------5---0---2------------------------------------5---0----------------------------5---0--------|
A|-------------------------------3-----------------3---------------5---0---2---------------------5---0---2-----------------------|
E|--------------------------------------------------------------3---------------3------------3------------------3-------------------|


(Then do this part 1 time)

E|----------------------------------------------------------------------------------------------------------------------------------|
B|----------------------------------------------------------------------------------------------------------------------------------|
G|-------5---0---2------5---0------------------------5---0----------------------------------------------------------------------|
D|---3---------------3---------------5---0---2------------------------------------5---0-----------------------------------------|
A|-------------------------------3-----------------3---------------5---0---2-----------------------------------------------------|
E|--------------------------------------------------------------3---------------3------------3-------------------------------------|


I hope you enjoy this lesson. There will be more to come.

Thanks,
kevin

http://www.myspace.com/karmstrong9
http://www.youtube.com/user/karmstrong9
25 Mar 2008



Hi,

I am Kevin Armstrong and I am 30 years old. I live in Glendale Arizona. I have been in to music ever since I was born. I started playing Piano when I was 3 years old when my parents bought me a toy piano. I started guitar when I was 13 years old. Both instruments I learned on my own. Through Elementary and High School I played in the Jazz band. I believe the music side came from my grandfather. He was a fiddle player in a bluegrass band and they made a few albums. His father was also a guitar player.

Most of the time I just play music on my own and make my own recordings. I just started using a program called Mixcraft. You can check some of my work at Visit My Website
Hopefully someeday I'll be in a band.

Also you can see me at myspace
http://www.myspace.com/karmstrong9


guitarmasterclass.net has really helped me improve my guitar playing skills.
This is a wonderful site where we can learn a lot from each other.

One of my favorite guitarist is Eddie Van Halen I when I started learning guitar. His fast style really inspired me to play guitar. But lately checking out youtube and this site, there are so many other great guitarist out there with awesome talent. It's amazing how this site can really pull in talent which we can all share it together.

------------------------------------------------------------------------------------------------------------------------------------

TAPPING LESSON 1

Lately I having been playing around with tapping , which I would like to teach today.
This lesson is sort of a bluegrass/country style sound. The entire lesson is straight tapping (hammer on/pull offs).

MAIN SONG (150 bpm)
Attached File  2_hand_tapping_lesson.avi ( 4.92MB ) Number of downloads: 527


GUITAR PRO
Attached File  2_hand_tapping_lesson1.gp5 ( 3.71K ) Number of downloads: 309

PDF
Attached File  2_hand_tapping_lesson1.pdf ( 151.28K ) Number of downloads: 366



Part 1: This is straight tapping using your index and ring finger on the left hand and index on right ( opposite for left hand guitar players).
(Play twice during song)

Attached File  2_hand_tapping_part_1.avi ( 2.8MB ) Number of downloads: 309


E|------------------------------------------------------------------------------------------|
B|----------5--0--4--5--0--2--5--0----5--0-------5---0----5--0----5--0-----5--0--|
G|-------4-----------------------------4----------2---------1-------2--------4----------|
D|----2-------------------------------------------------------------------------------------|
A|-------------------------------------------------------------------------------------------|
E|-------------------------------------------------------------------------------------------|

E|-----------------------------------------------------------------------------------------|
B|----------5--0--4--5--0--2--5--0----5--0-------5---0----5--0-----------5-------|
G|-------4----------------------------4----------2---------4-------------4------------|
D|----2---------------------------------------------------------------2-----------------|
A|---------------------------------------------------------------------------------------|
E|---------------------------------------------------------------------------------------|


Part 2: This part is a little bit faster (Play twice during song)
Attached File  2_hand_tapping_part_2.avi ( 3.58MB ) Number of downloads: 342


E|--4--5--7--0-----------------------------------------------------------------------------------------------|
B|---------------4--5--7--0--2--4--5--0----5--0--2--4--5--0--------5--0--2--4--5--0--4--5--7--0-|
G|-------------------------------------------1----------------------1--2-----------------------------------|
D|------------------------------------------------------------------------------------------------------------|
A|------------------------------------------------------------------------------------------------------------|
E|------------------------------------------------------------------------------------------------------------|

E|--4--5--7--0------------------------------------------------------------------------------------------|
B|---------------4--5--7--0--2--4--5--0----5--0--2--4--5--0--4--5--7--0--5--7--0--5---------|
G|------------------------------------------1-----------------------------------------------------------|
D|-------------------------------------------------------------------------------------------------------|
A|-------------------------------------------------------------------------------------------------------|
E|-------------------------------------------------------------------------------------------------------|


Part 3: Almost the same pattern as part 2.
(Play twice during song)
Attached File  2_hand_tapping_part_3.avi ( 3.78MB ) Number of downloads: 298


E|--4--5--7--0--4--5--7--0--5--7--9--0--4--5--7--0--4--5--7--0--4--5--7--0-----------------------|
B|------------------------------------------------------------------------------------------4--5--7--0--5---|
G|-------------------------------------------------------------------------------------------------------------|
D|-------------------------------------------------------------------------------------------------------------|
A|-------------------------------------------------------------------------------------------------------------|
E|-------------------------------------------------------------------------------------------------------------|


Part 4: Same as part 2
Attached File  2_hand_tapping_part_2.avi ( 3.58MB ) Number of downloads: 342


E|--4--5--7--0-----------------------------------------------------------------------------------------------|
B|---------------4--5--7--0--2--4--5--0----5--0--2--4--5--0--------5--0--2--4--5--0--4--5--7--0-|
G|------------------------------------------1---------------------1--2---------------------------------------|
D|------------------------------------------------------------------------------------------------------------|
A|------------------------------------------------------------------------------------------------------------|
E|------------------------------------------------------------------------------------------------------------|

E|--4--5--7--0------------------------------------------------------------------------------------------|
B|---------------4--5--7--0--2--4--5--0----5--0--2--4--5--0--4--5--7--0--5--7--0--5---------|
G|------------------------------------------1-----------------------------------------------------------|
D|-------------------------------------------------------------------------------------------------------|
A|-------------------------------------------------------------------------------------------------------|
E|-------------------------------------------------------------------------------------------------------|


BACKUP TRACKS
90 BPM Attached File  Tapping_Lesson1_90_bpm.mp3 ( 1.56MB ) Number of downloads: 372

120 BPM Attached File  Tapping_Lesson1_120_bpm.mp3 ( 1.19MB ) Number of downloads: 354

150 BPM Attached File  Tapping_Lesson1_150_bpm.mp3 ( 987.84K ) Number of downloads: 348

-----------------------------------------------------------------------------------------------------------------

I hope everyone enjoyed this lesson. There will be more to come soon.

thanks,
Kevin Armstrong
Attached File(s)
Attached File  Kevin_Armstrong.bmp ( 147.71K ) Number of downloads: 287
 
Last Visitors


16 Dec 2008 - 3:06


11 Sep 2008 - 23:02


12 Aug 2008 - 13:59


7 Aug 2008 - 19:31


19 Jun 2008 - 11:40

Comments
Other users have left no comments for karmstrong9.

Friends

15459 posts
4th May 2014 - 10:19 PM
View All Friends

RSS Lo-Fi Version Time is now: 23rd February 2019 - 07:46 PM