Lesson In The Style Of Ac/dc
shredmandan
Aug 10 2007, 10:36 AM
GMC:er
Posts: 1.311
Joined: 26-February 07
From: Tennessee , USA
[attachment=1245:attachment]

Hello Gmc
You know me as Shredmandan.This will be the first lesson i have put on gmc.Idont have a video cam to do video so im posting the music tracks and tabliture.I dont think you would need a video anyway on this.It's a beginner style lesson for a classic band AC/DC.They really use some simple chords but still manage to rock.I wanted to try to post something on here and hope it will be fun for someone.Below is a rythem riff in the style of Malcom Young/
b=bend

Rythem part1 [attachment=1246:attachment]

E--------------------------------------------------------
B--------------3-----------------------3----------------
G--------------2---2-2----------------2--2-2---2--3---
D--------------0---2-2----------------0--2-2----------
A--2--------2------0-0---2--------2-----0-0------------
E--0--3b---0-------------0--3b---0----------------------


This part will cover a Angus Young style of lead .

Lead part1 [attachment=1247:attachment]
b=bend /=slide bR=bend and release

E----------3--5-5bR--3----------------------------------------17-----------------------------
B-----3/5---------------3--5--2--2-3-5----------17--20-20b---20bR-----20---20----
G-----------------------------------------------19-----------------------19----------18 19-19b-
D-----------------------------------------------------------------------------------------------
A-----------------------------------------------------------------------------------------------
E------------------------------------------------------------------------------------------------

Make sure to listen to tracks to get the right fill on each riff.Please keep in mind this was my first lesson and i did it for fun .I hope someone found it enjoyable.If you have any questions feel free to ask.Please note at the end where the 20 and 18 are together that the 18 should be played first the 20.I have no idea why when i finish post it keeps putting together.

You are at GuitarMasterClass.net


Don't miss today's free lick. Plus all our lessons are packed with free content!

Don't miss today's free blues, jazz & country licks. Plus all our lessons are packed with free content!


This post has been edited by shredmandan: Aug 10 2007, 10:42 AM


--------------------
My Gear
Cort X-2 electric with 24 frets and 2 humbucker's dark Blue
Kustom DFX100 With Celestion Speakers,and thats it now (lol)

My Advice
Figure out what you want in life early.Wether it's the girl,the partying
or mastering the guitar.Adding any 2 together will get in your way.
Go to the top of the page
 
+Quote Post

Posts in this topic


Reply to this topicStart new topic
1 User(s) are reading this topic (1 Guests and 0 Anonymous Users)
0 Members:

 




RSS Lo-Fi Version Time is now: 29th October 2020 - 04:55 PM