#----------------------------------PLEASE NOTE---------------------------------#
#This file is the author's own work and represents their interpretation of the #
#song. You may only use this file for private study, scholarship, or research. #
#------------------------------------------------------------------------------#

GITARRERO - LESSON IN THE STYLE OF "DIE ÄRZTE"





Gtr I (E A D G B E) - 'Rhythm'
Gtr II (E A D G B E) - 'Lead'

 4/4
  Gtr I
|------------------------------------------------------------||----|
|-------------1---------------1-----------3-1---------------o||----|
|-----2---------2-----2---------2-----0-------0-----0--------||----|
|---2---2---2-------2---2---2-------2---2---------2---2------||----|
|-0-------0-------0-------0-------3-------------3-------3-2-o||----|
|------------------------------------------------------------||----|


  Gtr I
|---------------------------------------------------------------|
|---------------------------------------------------------------|
|-------------2-----------4-----------------7-------------------|
|-----3---------3-----5-----5-------7---------7-----7---7-/5----|
|---3---3---3-------5---5-----5---7---7---7-------7---7-7-/5----|
|-1-------1-------3-------------5-------5-------5-------5-/3----|


  Gtr II
|-------------------------------------------------------------|
|-------------------------------------------------------------|
|-------------------------------------------------------------|
|----------------------------5---5-7--------------------------|
|-0-3-5-/7-5-3-0----0-3-5-/7---7------0-3-5-/7-5-3-0---0------|
|----------------3-----------------------------------3---3----|


  Gtr I
|-1-1-1-1-1-1-1-1-1-1-1-1-3-3-3-3-3-3-3-3-3-3----|
|-1-1-1-1-1-1-1-1-1-1-1-1-3-3-3-3-3-3-3-3-3-3----|
|-2-2-2-2-2-2-2-2-2-2-2-2-4-4-4-4-4-4-4-4-4-4----|
|-3-3-3-3-3-3-3-3-3-3-3-3-5-5-5-5-5-5-5-5-5-5----|
|-3-3-3-3-3-3-3-3-3-3-3-3-5-5-5-5-5-5-5-5-5-5----|
|-1-1-1-1-1-1-1-1-1-1-1-1-3-3-3-3-3-3-3-3-3-3----|


  Gtrs I, II
|----------------------------------------------------|
|----------------------------------------------------|
|-5-5-5-5-5-5-5-5-5-5-5-5----------------------------|
|-5-5-5-5-5-5-5-5-5-5-5-5-5-5-5-5-5-5-5-5-5-5-5-5----|
|-3-3-3-3-3-3-3-3-3-3-3-3-5-5-5-5-5-5-5-5-5-5-5-5----|
|-------------------------3-3-3-3-3-3-3-3-3-3-3-3----|


  Gtrs I, II
|----------------------------------------------------|
|----------------------------------------------------|
|----------------------------------------------------|
|-3-3-3-3-3-3-3-3-3-3-3-3-7-7-7-7-7-7-5-5-5-5-5-5----|
|-3-3-3-3-3-3-3-3-3-3-3-3-7-7-7-7-7-7-5-5-5-5-5-5----|
|-1-1-1-1-1-1-1-1-1-1-1-1-5-5-5-5-5-5-3-3-3-3-3-3----|


  Gtr I
|-0--1-3-0--3-3-0--1-3-0--3-3-3-3-3-3-3-3-3----|
|-1--1-3-1--5-3-1--1-3-1--5-5-5-5-5-5-5-5-3----|
|-2--2-4-2--5-4-2--2-4-2--5-5-5-5-5-5-5-5-4----|
|-2--3-5-2--5-5-2--3-5-2--5-5-5-5-5-5-5-5-5----|
|-0--3-5-0--3-5-0--3-5-0--3-3-3-3-3-3-3-3-5----|
|----1-3------3----1-3--------------------3----|


             Gtr II
|------------3------------------------------------------8-10b12r====|
|--------------------------------------------------8-10-------------|
|-------------------5-----------------------------------------------|
|----------5---5-7----7-5---5---5-7---------------------------------|
|-0-3-5-/7---7------------7---7------0-3-5-3-0---0------------------|
|----------------------------------------------3--------------------|



Tablature Legend
----------------
 h   - hammer-on
 p   - pull-off
 b   - bend
 pb  - pre-bend
 r   - bend release (if no number after the r, then release immediately)
 /\  - slide into or out of (from/to "nowhere")
 s   - legato slide
 S   - shift slide
<n> - natural harmonic
[n]  - artificial harmonic
n(n) - tapped harmonic
 ~   - vibrato
 tr  - trill
 T   - tap
 TP  - trem. picking
 PM  - palm muting
\n/  - tremolo bar dip; n = amount to dip
 \n  - tremolo bar down
 n/  - tremolo bar up
/n\  - tremolo bar inverted dip
 =   - hold bend; also acts as connecting device for hammers/pulls
 <> - volume swell (louder/softer)
 x   - on rhythm slash represents muted slash
 o   - on rhythm slash represents single note slash

Misc Legend
-----------
 |  - bar
||  - double bar
||o - repeat start
o|| - repeat end
*|  - double bar (ending)
 :  - bar (freetime)
 $  - Segno
 &  - Coda
Tempo markers - <E/E./Q/Q./H/H.> = BPM(8/16=s8/s16), where s8 = swing 8ths, s16 = swing 16ths


** Generated using Power Tab Editor by Brad Larsen: The Official Power Tab Web Site