2 Pages V  < 1 2  
Reply to this topicStart new topic
> The Senseless, ..just finished this
Trond Vold
post Jul 23 2010, 04:09 AM
Post #21


Instructor
Group Icon

Group: GMC Instructor
Posts: 3.497
Joined: 16-February 08
From: Norge!
Member No.: 4.261



QUOTE (JamesT @ Jul 23 2010, 02:42 AM) *
Your songwriting is insane man! Keep them coming.

On this one, I like the keyboard hook. It really ties it all together and brings something different to the table.
Yeah, it needs some vocals!


Thanks! smile.gif But.. there is no keyboards in this one..


--------------------
Guitars: Schecter Stiletto Classic, Jackson SLSMG, Ibanez RG-380 Japan, Gibson Les Paul Studio

Amp: Marshall JMP-1 -> Rocktron Velocity 100 -> Marshall JCM-900 Lead 4x12

FX and stomps: T.C Electronics G-Sharp, Korg SDD-1200, Emma Transmorgrifier, BYOC Tribooster, GGG Green Ringer, Dinosaur Overdrive, Voodoo Lab SuperFuzz, Sovtek Bassballs, Line6 Tap Tremolo, EHX Screaming Bird.


___________________________________________________
My Lessons!

My Instructor Board!

My Myspace!
Go to the top of the page
 
+Quote Post
JamesT
post Jul 23 2010, 06:45 AM
Post #22


Accomplished Tone Master
*

Group: Members
Posts: 757
Joined: 12-April 08
From: USA, NV
Member No.: 4.872



Whoops, well it kind of sounds like a keyboard. smile.gif
I mean the main hook that goes..

-----------------------------------------------------------------------
-----------10---------------------------11----------------------------
----- 7----------7---- 10---------7----------7------10--------------- -- ---- -----
--------------------------------------------------------------------
-------------------------------------------------------------------
----------------------------------------------------------------

...or something like that. It sounds cool. Maybe its doubled an octave higher or something? At first I thought the slide from 7 to 10 on string 3 was a glissando effect on a keyboard. Oh well. Very nice indeed.

This post has been edited by JamesT: Jul 23 2010, 06:47 AM


--------------------


Check out my YouTube Channel
Go to the top of the page
 
+Quote Post
Trond Vold
post Jul 23 2010, 07:27 AM
Post #23


Instructor
Group Icon

Group: GMC Instructor
Posts: 3.497
Joined: 16-February 08
From: Norge!
Member No.: 4.261



QUOTE (JamesT @ Jul 23 2010, 07:45 AM) *
Whoops, well it kind of sounds like a keyboard. smile.gif
I mean the main hook that goes..

-----------------------------------------------------------------------
-----------10---------------------------11----------------------------
----- 7----------7---- 10---------7----------7------10--------------- -- ---- -----
--------------------------------------------------------------------
-------------------------------------------------------------------
----------------------------------------------------------------

...or something like that. It sounds cool. Maybe its doubled an octave higher or something? At first I thought the slide from 7 to 10 on string 3 was a glissando effect on a keyboard. Oh well. Very nice indeed.


The notes are correct, but i use "tap-slides" .. not sure what to call it.

---h7-t10/14--p7-t10-p7-t10/15------ etc.
Hammer on on the 7th fret, tap 10 and slide it up to 14. Next gets slided up to 15 and so forth.
And i record this twice in different octaves. Makes a cool synth-like effect smile.gif

This post has been edited by Trond Vold: Jul 23 2010, 07:28 AM


--------------------
Guitars: Schecter Stiletto Classic, Jackson SLSMG, Ibanez RG-380 Japan, Gibson Les Paul Studio

Amp: Marshall JMP-1 -> Rocktron Velocity 100 -> Marshall JCM-900 Lead 4x12

FX and stomps: T.C Electronics G-Sharp, Korg SDD-1200, Emma Transmorgrifier, BYOC Tribooster, GGG Green Ringer, Dinosaur Overdrive, Voodoo Lab SuperFuzz, Sovtek Bassballs, Line6 Tap Tremolo, EHX Screaming Bird.


___________________________________________________
My Lessons!

My Instructor Board!

My Myspace!
Go to the top of the page
 
+Quote Post

2 Pages V  < 1 2
Reply to this topicStart new topic
1 User(s) are reading this topic (1 Guests and 0 Anonymous Users)
0 Members:

 


RSS Lo-Fi Version Time is now: 25th July 2017 - 01:51 PM