Reply to this topicStart new topic
> What Does This Mean?
Nody
post Feb 20 2008, 04:16 PM
Post #1


GMC:er
*

Group: Members
Posts: 53
Joined: 14-October 07
Member No.: 3.046



Hi all,

------------------|----------------|------------------|-----------------|
-2--2\--x-x-------|-3--3--x-x--3\2-|-2--2\--x-x-------|-5--5---5\3--3\2-|
-3--3\--x-x-------|-4--4--x-x--4\3-|-3--3\--x-x-------|-6--6-x-6\4--4\3-|
-4--4\--x-x--2--4-|-5--5--x-x--5\4-|-4--4\--x-x--2--4-|-7--7-x-7\5--5\4-|
-4--4\--x-x--2--4-|-5--5--x-x--5\4-|-4--4\--x-x--2--4-|-7--7---7\5--5\4-|
-2--2\-------0--2-|-3--3-------3\2-|-2--2\-------0--2-|-5--5---5\3--3\2-|
(end Rhy. Fig. 2)


What do the xxx's mean and how do i do them???

Many Thanks

Nody
Go to the top of the page
 
+Quote Post
OrganisedConfusi...
post Feb 20 2008, 04:17 PM
Post #2


GMC:er
*

Group: Members
Posts: 5.635
Joined: 29-November 07
From: Nottingham, UK
Member No.: 3.401



They are mutes. Lift fingers so they are touching the string but not holding the fret down. And play the notes. It gets a funky kind of vibe.


--------------------
Gear
Guitars:- Caparison Horus Snowcloud, Parker Nitefly M, Parker Nitefly SA, Gibson SG, Parker P10e, 40 Year Old Spanish Acoustic
Amps:- Framus Ruby Riot 2x12" stack
Go to the top of the page
 
+Quote Post
DeepRoots
post Feb 20 2008, 04:19 PM
Post #3


Get to da Chopper!
Group Icon

Group: GMC Senior
Posts: 2.700
Joined: 18-March 07
From: South Wales, UK
Member No.: 1.374



thats right- block them off lightly so they dont produce a note and they'll make a nice scratchy percussive sound
Go to the top of the page
 
+Quote Post
at lights end
post Feb 20 2008, 04:20 PM
Post #4


GMC:er
*

Group: Members
Posts: 552
Joined: 6-December 07
From: England
Member No.: 3.460



they're muted.
just strum with your left hand fingers touching the strings but not fretting them.

edit: gives the sound like at the beginning of voodoo child.

https://www.youtube.com/watch?v=IHC9bxQkLCQ

This post has been edited by at lights end: Feb 20 2008, 04:23 PM


--------------------
“You have to go on and be crazy. Craziness is like heaven.”
Go to the top of the page
 
+Quote Post

Fast ReplyReply to this topicStart new topic
1 User(s) are reading this topic (1 Guests and 0 Anonymous Users)
0 Members:

 


RSS Lo-Fi Version Time is now: 22nd January 2017 - 09:28 PM