5 Pages V   1 2 3 > »   
Reply to this topicStart new topic
> Guess The Song
steve25
post Mar 13 2008, 11:54 PM
Post #1


GMC:er
*

Group: Members
Posts: 1.197
Joined: 19-April 07
From: Wiltshire, England
Member No.: 1.626



Ok so here's a little game and the rules are quite simple. I once used to do this elsewhere but with lyrics, where you'd say a line of a song and you'd have to guess what the song is. But as this is a guitar forum its going to be with tab instead. Dunno if you guys will like it but lets see smile.gif. To get the song you're most likely going to have to play it. I'll start with a nice easy one smile.gif.

E-------------------------------------------------------------
B-------------------------------------------------------------
G-------------------------------------------------------------
D-----------------------------------------12h14-------12----- X 2
A--12h14--12h14--12h14--12h14--------12h14---14--
E--12-------12------12--------------------------------------

This post has been edited by steve25: Mar 13 2008, 11:56 PM
Go to the top of the page
 
+Quote Post
RIP Dime
post Mar 13 2008, 11:59 PM
Post #2


GMC:er
*

Group: Members
Posts: 1.063
Joined: 2-October 06
From: Hawaii
Member No.: 862



Paranoid-Black Sabbath


--------------------
IPB Image
Go to the top of the page
 
+Quote Post
steve25
post Mar 14 2008, 12:00 AM
Post #3


GMC:er
*

Group: Members
Posts: 1.197
Joined: 19-April 07
From: Wiltshire, England
Member No.: 1.626



Yep smile.gif, now next person, can be you if you like doesn't have to be though
Go to the top of the page
 
+Quote Post
shellshock1911
post Mar 14 2008, 12:07 AM
Post #4


GMC:er
*

Group: Members
Posts: 689
Joined: 26-March 07
From: Columbus, Georgia, USA
Member No.: 1.414



|---19p14----------------14-19p14--------------14-19p14------------|---18p15----------------------15-17p14------------
|------------15-------15-------------15------15--------------15--------|-----------17-------------17---------------16------
|-----------------16----------------------16------------------------16---|---------------18-15-18---------------------- 17-
|---------------------------------------------------------------------------|-----------------------------------------------------
|---------------------------------------------------------------------------|-----------------------------------------------------
|---------------------------------------------------------------------------|----------------------------------------------------

Good enough, if you know it



--------------------
Go to the top of the page
 
+Quote Post
Outlaw2112
post Mar 14 2008, 12:27 AM
Post #5


GMC:er
*

Group: Members
Posts: 1.881
Joined: 16-January 08
From: Washington DC
Member No.: 3.852



e---------------------------------------------------------------------------------------------------
b---------------------------------------------------------------------------------------------------
g----------------------------------------------------------------------------------------------------
d-------------------------------3------------------------------------------------5-----------------6------------
a-------------------------------1------3---3---3-------------------------------3-----------------4------------
e----1---3---3---1---3---1----------1---1---1---1---3---3---1---3---1----------0--0--0----------------

This post has been edited by Outlaw2112: Mar 14 2008, 12:58 AM


--------------------
Go to the top of the page
 
+Quote Post
steve25
post Mar 14 2008, 12:29 AM
Post #6


GMC:er
*

Group: Members
Posts: 1.197
Joined: 19-April 07
From: Wiltshire, England
Member No.: 1.626



Shell that sounds quite neoclassically, though i'm not sure who that is
Go to the top of the page
 
+Quote Post
Stevie-Ray-Vaugh...
post Mar 14 2008, 12:33 AM
Post #7


Learning Rock Star
*

Group: Members
Posts: 1.119
Joined: 23-December 06
From: Canada!
Member No.: 1.005



Maybe you should have to give a hint about the song to make it easier? huh.gif


--------------------


But still I want answers, what's the point, what does all this mean?
Go to the top of the page
 
+Quote Post
Outlaw2112
post Mar 14 2008, 12:35 AM
Post #8


GMC:er
*

Group: Members
Posts: 1.881
Joined: 16-January 08
From: Washington DC
Member No.: 3.852





Heres the answer https://www.youtube.com/watch?v=hKqBTGZGSwU

This post has been edited by Outlaw2112: Mar 14 2008, 12:40 AM


--------------------
Go to the top of the page
 
+Quote Post
steve25
post Mar 14 2008, 12:35 AM
Post #9


GMC:er
*

Group: Members
Posts: 1.197
Joined: 19-April 07
From: Wiltshire, England
Member No.: 1.626



QUOTE (Stevie·Ray·Vaughn @ Mar 14 2008, 01:33 AM) *
Maybe you should have to give a hint about the song to make it easier? huh.gif


Could do, depends if we can't figure it out for a while. Good suggestion though smile.gif
Go to the top of the page
 
+Quote Post
Iluha
post Mar 14 2008, 12:53 AM
Post #10


GMC:er
*

Group: Members
Posts: 1.737
Joined: 14-April 07
From: Karmiel, Israel
Member No.: 1.574



Wouldn't it be a better idea to record the riff? a tab can be quite vauge


--------------------


My Latest Upload: Here!

My Practice Agenda/Blog: Here!
Go to the top of the page
 
+Quote Post
Outlaw2112
post Mar 14 2008, 12:55 AM
Post #11


GMC:er
*

Group: Members
Posts: 1.881
Joined: 16-January 08
From: Washington DC
Member No.: 3.852



QUOTE (Iluha @ Mar 14 2008, 12:53 AM) *
Wouldn't it be a better idea to record the riff? a tab can be quite vauge


Im guessing the whole game is to play it yourself on your guitar and figure it out, that makes it more fun and a learning experience..


--------------------
Go to the top of the page
 
+Quote Post
steve25
post Mar 14 2008, 01:00 AM
Post #12


GMC:er
*

Group: Members
Posts: 1.197
Joined: 19-April 07
From: Wiltshire, England
Member No.: 1.626



Not everyone has a way of recording themselves that's the thing.

Good one outlaw i wouldn't have got that one as i don't remember ever hearing their first album =]
Go to the top of the page
 
+Quote Post
Iluha
post Mar 14 2008, 01:02 AM
Post #13


GMC:er
*

Group: Members
Posts: 1.737
Joined: 14-April 07
From: Karmiel, Israel
Member No.: 1.574



QUOTE (Outlaw2112 @ Mar 14 2008, 01:55 AM) *
Im guessing the whole game is to play it yourself on your guitar and figure it out, that makes it more fun and a learning experience..

Hmm yeah I guess... I'm a bit on alcohol right now and not thinking straight XD thanks for pointing this out to me smile.gif


--------------------


My Latest Upload: Here!

My Practice Agenda/Blog: Here!
Go to the top of the page
 
+Quote Post
Outlaw2112
post Mar 14 2008, 01:08 AM
Post #14


GMC:er
*

Group: Members
Posts: 1.881
Joined: 16-January 08
From: Washington DC
Member No.: 3.852



QUOTE (steve25 @ Mar 14 2008, 01:00 AM) *
Not everyone has a way of recording themselves that's the thing.

Good one outlaw i wouldn't have got that one as i don't remember ever hearing their first album =]


What!!! The best metal and guitar playing album ever, in my opinion... thats when metallica was their best, they were raw and cliff burton was alive... you gotta check it out, every song rocks and is fun to play on guitar..


--------------------
Go to the top of the page
 
+Quote Post
Tuubsu
post Mar 14 2008, 01:18 AM
Post #15


GMC:er
*

Group: Members
Posts: 795
Joined: 28-August 07
From: Lappeenranta, Finland
Member No.: 2.620



e|--------------------------------------------------------------------------------
b|--------------------------------------------------------------------------------
g|--------------------------------------------------------------------------------
d|---2----------2---------------------------------------------7-----------------2
a|---2----0h2-------0h2----5----5--------------------------5--------5--4----2
e|---0-----------------------------3-------0--2--3--2--0-------------3--2----0


Well, take a shot at this....
hint: only demo ever released wink.gif


--------------------
Anyone can learn to play fast, like anyone can learn to type quickly. But not everyone can write a book.
- Yngwie J. Malmsteen


Idols:

Jason Becker (ex-Cacophony, ex-David Lee Roth, Solo)
Marty Friedman (ex-Cacophony, ex-Megadeth, Solo)
Niccolo Paganini (Solo)
Eddie Van Halen (Van Halen....Duh!)
Frederic Chopin (Solo)

Go to the top of the page
 
+Quote Post
Outlaw2112
post Mar 14 2008, 01:24 AM
Post #16


GMC:er
*

Group: Members
Posts: 1.881
Joined: 16-January 08
From: Washington DC
Member No.: 3.852



|------------------------------------------------------------------------------------0------------------------0----------------------------------
|-----------------------------------------------------------------------------------------0-------------------------0----------------------------
|----------------------------------------------------------------------------------------------------------------------------------------------
|-------2--------4---------------5---------------2-----------4-------------------------------------------------------------------------------
|--2--------2---------------3----------2--------------2----------------5------4--------------4-------3-----------------3-------2----------------
|--0-------------------0---------------0-----0------------------0------3------2--------------2-------1-----------------1-------0----------------

This post has been edited by Outlaw2112: Mar 14 2008, 01:27 AM


--------------------
Go to the top of the page
 
+Quote Post
Stevie-Ray-Vaugh...
post Mar 14 2008, 01:27 AM
Post #17


Learning Rock Star
*

Group: Members
Posts: 1.119
Joined: 23-December 06
From: Canada!
Member No.: 1.005



Holy Wars - Megadeth smile.gif


--------------------


But still I want answers, what's the point, what does all this mean?
Go to the top of the page
 
+Quote Post
Outlaw2112
post Mar 14 2008, 01:29 AM
Post #18


GMC:er
*

Group: Members
Posts: 1.881
Joined: 16-January 08
From: Washington DC
Member No.: 3.852



QUOTE (Outlaw2112 @ Mar 14 2008, 01:24 AM) *
|------------------------------------------------------------------------------------0------------------------0----------------------------------
|-----------------------------------------------------------------------------------------0-------------------------0----------------------------
|----------------------------------------------------------------------------------------------------------------------------------------------
|-------2--------4---------------5---------------2-----------4-------------------------------------------------------------------------------
|--2--------2---------------3----------2--------------2----------------5------4--------------4-------3-----------------3-------2----------------
|--0-------------------0---------------0-----0------------------0------3------2--------------2-------1-----------------1-------0----------------



Heres a hint... the lead singer and guitarist used to be in metallica

Heres the answer...the break in this bad ass song, which im currently addicted to playing all the time..

https://www.youtube.com/watch?v=-YczYC2yHTM


--------------------
Go to the top of the page
 
+Quote Post
Outlaw2112
post Mar 14 2008, 01:30 AM
Post #19


GMC:er
*

Group: Members
Posts: 1.881
Joined: 16-January 08
From: Washington DC
Member No.: 3.852



QUOTE (Tuubsu @ Mar 14 2008, 01:18 AM) *
e|--------------------------------------------------------------------------------
b|--------------------------------------------------------------------------------
g|--------------------------------------------------------------------------------
d|---2----------2---------------------------------------------7-----------------2
a|---2----0h2-------0h2----5----5--------------------------5--------5--4----2
e|---0-----------------------------3-------0--2--3--2--0-------------3--2----0


Well, take a shot at this....
hint: only demo ever released wink.gif


I dont know what it is, but it sounds cool


--------------------
Go to the top of the page
 
+Quote Post
Stevie-Ray-Vaugh...
post Mar 14 2008, 01:31 AM
Post #20


Learning Rock Star
*

Group: Members
Posts: 1.119
Joined: 23-December 06
From: Canada!
Member No.: 1.005



So I was right smile.gif


--------------------


But still I want answers, what's the point, what does all this mean?
Go to the top of the page
 
+Quote Post

5 Pages V   1 2 3 > » 
Fast ReplyReply to this topicStart new topic
1 User(s) are reading this topic (1 Guests and 0 Anonymous Users)
0 Members:

 


RSS Lo-Fi Version Time is now: 26th March 2017 - 04:06 PM