5 Pages V  < 1 2 3 4 5 >  
Reply to this topicStart new topic
> Guess The Song
steve25
post Mar 14 2008, 04:37 PM
Post #41


GMC:er
*

Group: Members
Posts: 1.197
Joined: 19-April 07
From: Wiltshire, England
Member No.: 1.626



Well done organised for getting those ones smile.gif i knew the first was megadeth but i had no clue what the song was. But i only knew because of Tuubsu's clues lol.

By the way if you guys all agree it would be better with audio clips rather than tab i'd be more then happy to bend the rules to make it better
Go to the top of the page
 
+Quote Post
Outlaw2112
post Mar 14 2008, 11:56 PM
Post #42


GMC:er
*

Group: Members
Posts: 1.881
Joined: 16-January 08
From: Washington DC
Member No.: 3.852



I like tabs, it makes you play it yourself and you also might learn some new riffs... it makes it more challenging and fun.. tongue.gif


--------------------
Go to the top of the page
 
+Quote Post
Stevie-Ray-Vaugh...
post Mar 14 2008, 11:58 PM
Post #43


Learning Rock Star
*

Group: Members
Posts: 1.119
Joined: 23-December 06
From: Canada!
Member No.: 1.005



OC, is it God Gave Rock n Roll to you? I havent played it, I just looked at the tab so im guessing laugh.gif


--------------------


But still I want answers, what's the point, what does all this mean?
Go to the top of the page
 
+Quote Post
steve25
post Mar 15 2008, 12:57 AM
Post #44


GMC:er
*

Group: Members
Posts: 1.197
Joined: 19-April 07
From: Wiltshire, England
Member No.: 1.626



Ooo i believe that to be correct Stevie, by the band Kiss i think? 2 for you looks like tongue.gif
Go to the top of the page
 
+Quote Post
OrganisedConfusi...
post Mar 15 2008, 11:28 AM
Post #45


GMC:er
*

Group: Members
Posts: 5.635
Joined: 29-November 07
From: Nottingham, UK
Member No.: 3.401



QUOTE (Stevie·Ray·Vaughn @ Mar 14 2008, 10:58 PM) *
OC, is it God Gave Rock n Roll to you? I havent played it, I just looked at the tab so im guessing laugh.gif

Yes you are right smile.gif


--------------------
Gear
Guitars:- Caparison Horus Snowcloud, Parker Nitefly M, Parker Nitefly SA, Gibson SG, Parker P10e, 40 Year Old Spanish Acoustic
Amps:- Framus Ruby Riot 2x12" stack
Go to the top of the page
 
+Quote Post
Tuubsu
post Mar 15 2008, 11:34 PM
Post #46


GMC:er
*

Group: Members
Posts: 795
Joined: 28-August 07
From: Lappeenranta, Finland
Member No.: 2.620



Let's keep this going, here's a new one:

Eb|------------------------------------------------------------------
Bb|------------------------------------------------------------------
Gb|-----------9--7--9--------------4--5--4--------/7-------5--4--
Db|-----------7--7--7--------------5--7--5---------5-------7--5--
Ab|----0--0-------------0--0--0--------------0-0------------------
Eb|------------------------------------------------------------------
..........e...e...e..e..e...e...e..e.....e...e...e..s..s...q..........e...e.
Eb|------------------------------------------------------------------
Bb|------------------------------------------------------------------
Gb|-----------9--7--9--------------4--0--7--0---------------------
Db|-----------7--7--7--------------5--5--5--5---<12>b----------
Ab|----0--0-------------0--0--0------------------------------------
Eb|------------------------------------------------------------------
..........e...e...e..e..e....e..e...e....e..e..e...e.......h....................
.... try around 135-140 bpm.

hint: The composer has something in common with the founder of this site wink.gif


--------------------
Anyone can learn to play fast, like anyone can learn to type quickly. But not everyone can write a book.
- Yngwie J. Malmsteen


Idols:

Jason Becker (ex-Cacophony, ex-David Lee Roth, Solo)
Marty Friedman (ex-Cacophony, ex-Megadeth, Solo)
Niccolo Paganini (Solo)
Eddie Van Halen (Van Halen....Duh!)
Frederic Chopin (Solo)

Go to the top of the page
 
+Quote Post
Outlaw2112
post Mar 16 2008, 06:39 AM
Post #47


GMC:er
*

Group: Members
Posts: 1.881
Joined: 16-January 08
From: Washington DC
Member No.: 3.852



QUOTE (Tuubsu @ Mar 15 2008, 11:34 PM) *
Let's keep this going, here's a new one:

Eb|------------------------------------------------------------------
Bb|------------------------------------------------------------------
Gb|-----------9--7--9--------------4--5--4--------/7-------5--4--
Db|-----------7--7--7--------------5--7--5---------5-------7--5--
Ab|----0--0-------------0--0--0--------------0-0------------------
Eb|------------------------------------------------------------------
..........e...e...e..e..e...e...e..e.....e...e...e..s..s...q..........e...e.
Eb|------------------------------------------------------------------
Bb|------------------------------------------------------------------
Gb|-----------9--7--9--------------4--0--7--0---------------------
Db|-----------7--7--7--------------5--5--5--5---<12>b----------
Ab|----0--0-------------0--0--0------------------------------------
Eb|------------------------------------------------------------------
..........e...e...e..e..e....e..e...e....e..e..e...e.......h....................
.... try around 135-140 bpm.

hint: The composer has something in common with the founder of this site wink.gif


i have no idea!!


--------------------
Go to the top of the page
 
+Quote Post
Outlaw2112
post Mar 16 2008, 06:51 AM
Post #48


GMC:er
*

Group: Members
Posts: 1.881
Joined: 16-January 08
From: Washington DC
Member No.: 3.852



|---------------------------------------------------------------------| |-------------------------------------------------------------
|---------------------------------------------------------------------| |--------------------------------------------------------------
|---------------------------------------------------------------------| |--------------------------------------------------------------
|-----5h7--5h7---5-------------------5----------7-------7---------| |--7-7-7-7----5-5-5-5------------------5-5-5-5------------
|----------------------7-------5---7------5---7------4-------5---7-| |--5-5-5-5----3-3-3-3----7---5---7---3-3-3-3-------------
|--------------------------8------------------------------------------| |------------------------------5---3---5-------------------------
^
4x
hint: something to do with water and its an older song

This post has been edited by Outlaw2112: Mar 16 2008, 07:44 AM


--------------------
Go to the top of the page
 
+Quote Post
swingline
post Mar 16 2008, 06:53 AM
Post #49


GMC:er
*

Group: Members
Posts: 789
Joined: 2-August 07
From: Hemet, California
Member No.: 2.460



While we struggle with the last one let get an easier one too.
CODE
PM| PM| PM| PM| PM
E E E E E E E E E E E E E E E E
|------------------|-------------------|
|---9-----10-----7-|-----9-----10---7-|
|---9------9-----8-|-----9------9---8-|
|---9------9-----9-|-----9------9---9-|
|-----7-7----7-7---|-7-7---7-7----7---|
|------------------|-------------------|

PM| PM|
a E E E E E E E E +E.
|-------------------|
|-----7-----8-----5-|
|-----7-----7-----6-|
|-----7-----7-----7-|
|-7s5---5-5---5-5---|
|-------------------|



This post has been edited by swingline: Mar 16 2008, 06:55 AM


--------------------
--------------------


The Gear:
Jackson Dinky 2M Snow White
Line 6 Spider III 75 watt
Line 6 FBV Express Foot Controller
Go to the top of the page
 
+Quote Post
Outlaw2112
post Mar 16 2008, 06:57 AM
Post #50


GMC:er
*

Group: Members
Posts: 1.881
Joined: 16-January 08
From: Washington DC
Member No.: 3.852



QUOTE (swingline @ Mar 16 2008, 06:53 AM) *
While we struggle with the last one let get an easier one too.
CODE
PM| PM| PM| PM| PM
E E E E E E E E E E E E E E E E
|------------------|-------------------|
|---9-----10-----7-|-----9-----10---7-|
|---9------9-----8-|-----9------9---8-|
|---9------9-----9-|-----9------9---9-|
|-----7-7----7-7---|-7-7---7-7----7---|
|------------------|-------------------|

PM| PM|
a E E E E E E E E +E.
|-------------------|
|-----7-----8-----5-|
|-----7-----7-----6-|
|-----7-----7-----7-|
|-7s5---5-5---5-5---|
|-------------------|



any hints



--------------------
Go to the top of the page
 
+Quote Post
swingline
post Mar 16 2008, 07:00 AM
Post #51


GMC:er
*

Group: Members
Posts: 789
Joined: 2-August 07
From: Hemet, California
Member No.: 2.460



QUOTE (Outlaw2112 @ Mar 15 2008, 10:57 PM) *
any hints

The song name is also the name of a country.


--------------------
--------------------


The Gear:
Jackson Dinky 2M Snow White
Line 6 Spider III 75 watt
Line 6 FBV Express Foot Controller
Go to the top of the page
 
+Quote Post
Tuubsu
post Mar 16 2008, 07:00 AM
Post #52


GMC:er
*

Group: Members
Posts: 795
Joined: 28-August 07
From: Lappeenranta, Finland
Member No.: 2.620



I guess I'll try giving hints:

The composer can be found from my signature and the song is something that happens after something....big!


--------------------
Anyone can learn to play fast, like anyone can learn to type quickly. But not everyone can write a book.
- Yngwie J. Malmsteen


Idols:

Jason Becker (ex-Cacophony, ex-David Lee Roth, Solo)
Marty Friedman (ex-Cacophony, ex-Megadeth, Solo)
Niccolo Paganini (Solo)
Eddie Van Halen (Van Halen....Duh!)
Frederic Chopin (Solo)

Go to the top of the page
 
+Quote Post
Outlaw2112
post Mar 16 2008, 07:04 AM
Post #53


GMC:er
*

Group: Members
Posts: 1.881
Joined: 16-January 08
From: Washington DC
Member No.: 3.852



sounds like something from megadeth, but im not sure of the song


--------------------
Go to the top of the page
 
+Quote Post
swingline
post Mar 16 2008, 07:10 AM
Post #54


GMC:er
*

Group: Members
Posts: 789
Joined: 2-August 07
From: Hemet, California
Member No.: 2.460



QUOTE (Tuubsu @ Mar 15 2008, 11:00 PM) *
I guess I'll try giving hints:

The composer can be found from my signature and the song is something that happens after something....big!

I'm guessing its a Malmsteen song because their both swedish.


--------------------
--------------------


The Gear:
Jackson Dinky 2M Snow White
Line 6 Spider III 75 watt
Line 6 FBV Express Foot Controller
Go to the top of the page
 
+Quote Post
Tuubsu
post Mar 16 2008, 07:11 AM
Post #55


GMC:er
*

Group: Members
Posts: 795
Joined: 28-August 07
From: Lappeenranta, Finland
Member No.: 2.620



Actually I'll just give it away, cos I couldn't even find this version on the youtube and I guess it's little hard...

It's bom bom bom............Yngwie Malmsteen - Aftermath!

Heres some version of it on youtube a little different as you can see (the riff doesn't come right away)
http://youtube.com/watch?v=olQtpOCgwrY&feature=related


I'll put an easier one later, cos I like this game! smile.gif


--------------------
Anyone can learn to play fast, like anyone can learn to type quickly. But not everyone can write a book.
- Yngwie J. Malmsteen


Idols:

Jason Becker (ex-Cacophony, ex-David Lee Roth, Solo)
Marty Friedman (ex-Cacophony, ex-Megadeth, Solo)
Niccolo Paganini (Solo)
Eddie Van Halen (Van Halen....Duh!)
Frederic Chopin (Solo)

Go to the top of the page
 
+Quote Post
Outlaw2112
post Mar 16 2008, 07:14 AM
Post #56


GMC:er
*

Group: Members
Posts: 1.881
Joined: 16-January 08
From: Washington DC
Member No.: 3.852



yeah its a cool game, any guesses on mine? It has something to do with water and its an old popular song


--------------------
Go to the top of the page
 
+Quote Post
Outlaw2112
post Mar 16 2008, 07:20 AM
Post #57


GMC:er
*

Group: Members
Posts: 1.881
Joined: 16-January 08
From: Washington DC
Member No.: 3.852



QUOTE (Tuubsu @ Mar 16 2008, 07:11 AM) *
Actually I'll just give it away, cos I couldn't even find this version on the youtube and I guess it's little hard...

It's bom bom bom............Yngwie Malmsteen - Aftermath!

Heres some version of it on youtube a little different as you can see (the riff doesn't come right away)
http://youtube.com/watch?v=olQtpOCgwrY&feature=related


I'll put an easier one later, cos I like this game! smile.gif



That guitarman in your youtube is a beast...


--------------------
Go to the top of the page
 
+Quote Post
Outlaw2112
post Mar 16 2008, 07:45 AM
Post #58


GMC:er
*

Group: Members
Posts: 1.881
Joined: 16-January 08
From: Washington DC
Member No.: 3.852



QUOTE (Outlaw2112 @ Mar 16 2008, 06:51 AM) *
|---------------------------------------------------------------------| |-------------------------------------------------------------
|---------------------------------------------------------------------| |--------------------------------------------------------------
|---------------------------------------------------------------------| |--------------------------------------------------------------
|-----5h7--5h7---5-------------------5----------7-------7---------| |--7-7-7-7----5-5-5-5------------------5-5-5-5------------
|----------------------7-------5---7------5---7------4-------5---7-| |--5-5-5-5----3-3-3-3----7---5---7---3-3-3-3-------------
|--------------------------8------------------------------------------| |------------------------------5---3---5-------------------------
^
4x
hint: something to do with water and its an older song



heres the answer for those who give up

https://www.youtube.com/watch?v=eGSXM8yTbEA


--------------------
Go to the top of the page
 
+Quote Post
Tuubsu
post Mar 16 2008, 09:40 AM
Post #59


GMC:er
*

Group: Members
Posts: 795
Joined: 28-August 07
From: Lappeenranta, Finland
Member No.: 2.620



QUOTE (Outlaw2112 @ Mar 16 2008, 08:45 AM) *
heres the answer for those who give up

https://www.youtube.com/watch?v=eGSXM8yTbEA



OH MY GOD! I know That song better than my family!!!! how didn't I get it!!!! blink.gif


--------------------
Anyone can learn to play fast, like anyone can learn to type quickly. But not everyone can write a book.
- Yngwie J. Malmsteen


Idols:

Jason Becker (ex-Cacophony, ex-David Lee Roth, Solo)
Marty Friedman (ex-Cacophony, ex-Megadeth, Solo)
Niccolo Paganini (Solo)
Eddie Van Halen (Van Halen....Duh!)
Frederic Chopin (Solo)

Go to the top of the page
 
+Quote Post
Trond Vold
post Mar 16 2008, 09:42 AM
Post #60


Instructor
Group Icon

Group: GMC Instructor
Posts: 3.497
Joined: 16-February 08
From: Norge!
Member No.: 4.261



|---------------------------|------------------------------|----------------------------||
|---------------------------|------------------------------|----------------------------||
|---------5-----------------|----------5------------------|-----------5----------------||
|-----5-7---5-7---5-----5-|-----5-7----5-7---5-----5-_|-----5-7---5-7---5------5-||
|---7-----------7---5-7----|---7-------------7---5-7----|---7-----------7----5--7---||
|-5-------------------------|-5---------------------------|-5--------------------------||

Anyone remember this? smile.gif

This post has been edited by Trond Vold: Mar 16 2008, 09:42 AM


--------------------
Guitars: Schecter Stiletto Classic, Jackson SLSMG, Ibanez RG-380 Japan, Gibson Les Paul Studio

Amp: Marshall JMP-1 -> Rocktron Velocity 100 -> Marshall JCM-900 Lead 4x12

FX and stomps: T.C Electronics G-Sharp, Korg SDD-1200, Emma Transmorgrifier, BYOC Tribooster, GGG Green Ringer, Dinosaur Overdrive, Voodoo Lab SuperFuzz, Sovtek Bassballs, Line6 Tap Tremolo, EHX Screaming Bird.


___________________________________________________
My Lessons!

My Instructor Board!

My Myspace!
Go to the top of the page
 
+Quote Post

5 Pages V  < 1 2 3 4 5 >
Fast ReplyReply to this topicStart new topic
1 User(s) are reading this topic (1 Guests and 0 Anonymous Users)
0 Members:

 


RSS Lo-Fi Version Time is now: 16th January 2017 - 08:30 PM