5 Pages V  « < 2 3 4 5 >  
Reply to this topicStart new topic
> Guess The Song
steve25
post Mar 16 2008, 01:32 PM
Post #61


GMC:er
*

Group: Members
Posts: 1.197
Joined: 19-April 07
From: Wiltshire, England
Member No.: 1.626



QUOTE (Trond Vold @ Mar 16 2008, 10:42 AM) *
|---------------------------|------------------------------|----------------------------||
|---------------------------|------------------------------|----------------------------||
|---------5-----------------|----------5------------------|-----------5----------------||
|-----5-7---5-7---5-----5-|-----5-7----5-7---5-----5-_|-----5-7---5-7---5------5-||
|---7-----------7---5-7----|---7-------------7---5-7----|---7-----------7----5--7---||
|-5-------------------------|-5---------------------------|-5--------------------------||

Anyone remember this? smile.gif


Is that Whole Lotta Love - Led Zepelin?

EDIT: wait no never mind i look at the tab and thought i recognised it without playing it tongue.gif

This post has been edited by steve25: Mar 16 2008, 01:33 PM
Go to the top of the page
 
+Quote Post
RandomVictim
post Mar 16 2008, 02:59 PM
Post #62


GMC:er
*

Group: Members
Posts: 96
Joined: 24-January 08
Member No.: 3.972



QUOTE (swingline @ Mar 16 2008, 12:53 AM) *
While we struggle with the last one let get an easier one too.
CODE
PM| PM| PM| PM| PM
E E E E E E E E E E E E E E E E
|------------------|-------------------|
|---9-----10-----7-|-----9-----10---7-|
|---9------9-----8-|-----9------9---8-|
|---9------9-----9-|-----9------9---9-|
|-----7-7----7-7---|-7-7---7-7----7---|
|------------------|-------------------|

PM| PM|
a E E E E E E E E +E.
|-------------------|
|-----7-----8-----5-|
|-----7-----7-----6-|
|-----7-----7-----7-|
|-7s5---5-5---5-5---|
|-------------------|




Panama- Van Halen


--------------------

Gear

Guitars
Eric Johnson Sig Strat
Gibson SG Special
Esp Ltd EC-1000 deluxe
Larivee Acoustic
Takamine 12 String

Amps
Mesa Boogie Express 5:50
Line 6 Spider III HD75 head
Line 6 Spider III Cab with C30 speakers
Vox AD30
Marshall MG10

Pedals
Line 6 Pod X3
Slash Sig Wah
Dan Electro Cool Cat Chorus
Dan Electro FAB Echo
BB PREAMP!
Boss MT-2
FBV Express
Go to the top of the page
 
+Quote Post
Stevie-Ray-Vaugh...
post Mar 16 2008, 05:08 PM
Post #63


Learning Rock Star
*

Group: Members
Posts: 1.119
Joined: 23-December 06
From: Canada!
Member No.: 1.005



Trond, is it something by Jethro Tull ?smile.gif


--------------------


But still I want answers, what's the point, what does all this mean?
Go to the top of the page
 
+Quote Post
Stevie-Ray-Vaugh...
post Mar 16 2008, 05:12 PM
Post #64


Learning Rock Star
*

Group: Members
Posts: 1.119
Joined: 23-December 06
From: Canada!
Member No.: 1.005



Here's my song smile.gif

--------------------------------
2 -----------------------------
3 ----------------------------
4 ----------------------------
5 -5----3-4--3--5------3-4-
6 ---3-6------------3-6------



Hint: The song name is 2 words, and one of the words relates to water smile.gif Good luck!

This post has been edited by Stevie·Ray·Vaughn: Mar 16 2008, 05:12 PM


--------------------


But still I want answers, what's the point, what does all this mean?
Go to the top of the page
 
+Quote Post
FretDancer69
post Mar 17 2008, 02:07 AM
Post #65


GMC:er
*

Group: Passive
Posts: 2.442
Joined: 11-June 07
From: Honduras
Member No.: 2.062



you guys should try using the Courier New font for tabs, it arranges them better and they look more neat.

This post has been edited by FretDancer69: Mar 17 2008, 02:07 AM


--------------------
Playing Guitar Since: December 2006
Go to the top of the page
 
+Quote Post
Trond Vold
post Mar 17 2008, 02:14 AM
Post #66


Instructor
Group Icon

Group: GMC Instructor
Posts: 3.497
Joined: 16-February 08
From: Norge!
Member No.: 4.261



Mine was the Airwolf theme smile.gif


--------------------
Guitars: Schecter Stiletto Classic, Jackson SLSMG, Ibanez RG-380 Japan, Gibson Les Paul Studio

Amp: Marshall JMP-1 -> Rocktron Velocity 100 -> Marshall JCM-900 Lead 4x12

FX and stomps: T.C Electronics G-Sharp, Korg SDD-1200, Emma Transmorgrifier, BYOC Tribooster, GGG Green Ringer, Dinosaur Overdrive, Voodoo Lab SuperFuzz, Sovtek Bassballs, Line6 Tap Tremolo, EHX Screaming Bird.


___________________________________________________
My Lessons!

My Instructor Board!

My Myspace!
Go to the top of the page
 
+Quote Post
Outlaw2112
post Mar 28 2008, 02:28 AM
Post #67


GMC:er
*

Group: Members
Posts: 1.881
Joined: 16-January 08
From: Washington DC
Member No.: 3.852



QUOTE (Stevie·Ray·Vaughn @ Mar 16 2008, 05:12 PM) *
Here's my song smile.gif

--------------------------------
2 -----------------------------
3 ----------------------------
4 ----------------------------
5 -5----3-4--3--5------3-4-
6 ---3-6------------3-6------



Hint: The song name is 2 words, and one of the words relates to water smile.gif Good luck!


aqualung


--------------------
Go to the top of the page
 
+Quote Post
Stevie-Ray-Vaugh...
post Mar 28 2008, 02:29 AM
Post #68


Learning Rock Star
*

Group: Members
Posts: 1.119
Joined: 23-December 06
From: Canada!
Member No.: 1.005



QUOTE (Outlaw2112 @ Mar 28 2008, 01:28 AM) *
aqualung


Bravo smile.gif Who goes now?


--------------------


But still I want answers, what's the point, what does all this mean?
Go to the top of the page
 
+Quote Post
Outlaw2112
post Mar 28 2008, 02:46 AM
Post #69


GMC:er
*

Group: Members
Posts: 1.881
Joined: 16-January 08
From: Washington DC
Member No.: 3.852



||-----------------------------------------------------------------------------------------
||----------------------------------------------------------------------------------------
||----------------------------------------------------------------------------------------
||---------------------------------------------------------------------------------------
||-3/7~~~-----8\7-------------------------------------------------------------5--7-------
||-1/5~~~-----6\5---0--0--0--0--0--0--0--0--0--0--0--0--0--0--0--0--3--5-------


------------------------------------------------------------------------------------------
-----------------------------------------------------------------------------------------
------------------------------------------------------------------------------------------
------------------------------------------------------------------------------------------
----------------------------------------------------------8--7---------------------------
0--0--0--0--0--0--0--0--0--0--0--0--0--0--0--0--6--5-----0--0--0--0--0--0------





-------------------------------------------------------------------------------------
------------------------------------------------------------------------------------
--------------------------------------------------------------------------------------
-----------------------------------------------------------------------------------
------------------------------------5--7----------------------------------8--7--5-----
0--0--0--0--0--0--0--0--0--0--3--5-----0--0--0--0--0--0--0--0--6--5--3-------------


heres a hint
Artist is metallica and its from one of their earlier cd's

Answer is here

https://www.youtube.com/watch?v=DDNASEClfCs

This post has been edited by Outlaw2112: Mar 28 2008, 02:48 AM


--------------------
Go to the top of the page
 
+Quote Post
Stevie-Ray-Vaugh...
post Mar 28 2008, 03:07 AM
Post #70


Learning Rock Star
*

Group: Members
Posts: 1.119
Joined: 23-December 06
From: Canada!
Member No.: 1.005



So did you just post and give us the answer at the same time? huh.gif


--------------------


But still I want answers, what's the point, what does all this mean?
Go to the top of the page
 
+Quote Post
Outlaw2112
post Mar 28 2008, 03:16 AM
Post #71


GMC:er
*

Group: Members
Posts: 1.881
Joined: 16-January 08
From: Washington DC
Member No.: 3.852



yeah, that way the answer is there for everyone who wants to click on it...


--------------------
Go to the top of the page
 
+Quote Post
Stevie-Ray-Vaugh...
post Mar 28 2008, 03:18 AM
Post #72


Learning Rock Star
*

Group: Members
Posts: 1.119
Joined: 23-December 06
From: Canada!
Member No.: 1.005



Oh well I messed that up haha laugh.gif


--------------------


But still I want answers, what's the point, what does all this mean?
Go to the top of the page
 
+Quote Post
steve25
post Mar 30 2008, 10:36 PM
Post #73


GMC:er
*

Group: Members
Posts: 1.197
Joined: 19-April 07
From: Wiltshire, England
Member No.: 1.626



I'm not so sure if it's a good idea to put the answer in the same post as the tab. The idea is to let people guess and if they can't then reveal it. Anyway i have another one for you guys another metal classic of course smile.gif


BPM: 210

E------------------------------------------------------------------------------------------------------------------------
B------------------------------------------------------------------------------------------------------------------------
G------------------------------------------------------------------------------------------------------------------------
D------------------------------------------------------------------------------------------------------------------------ REPEAT
A--2------------------------------3-3-----------------------------4-4---------------------------------------------7---6-
E--0-0-0-0-0-0-0-0-0-0-0-0-1-1-0-0-0-0-0-0-0-0-0-0-0-2-2-0-0-0-0-0-0-0-0-0-0-0-0-0-0-1-0-1-5---4-


A bit fast paced but not too difficult. Also the tuning is Eb.

This post has been edited by steve25: Mar 30 2008, 10:39 PM
Go to the top of the page
 
+Quote Post
Capt.Z
post Mar 30 2008, 11:48 PM
Post #74


GMC:er
*

Group: Members
Posts: 999
Joined: 18-February 08
From: Detroit (unfortunately...)
Member No.: 4.293



try this one! its very easy! tongue.gif
|--------------------------------------------------
|-------------------------------------------------- *this is
|-------------------------------------------------- the rhythm
|----7--7/9-9--12\11-12\11-12\11--7-7/9-9--
|-9--5--5/7-7--10\9--10\9--10\9---5-5/7-7---
|-7------------------------------------------------


--------------------

GMC IS TIGHT DAWG
Go to the top of the page
 
+Quote Post
Trond Vold
post Mar 30 2008, 11:49 PM
Post #75


Instructor
Group Icon

Group: GMC Instructor
Posts: 3.497
Joined: 16-February 08
From: Norge!
Member No.: 4.261



QUOTE (steve25 @ Mar 30 2008, 11:36 PM) *
I'm not so sure if it's a good idea to put the answer in the same post as the tab. The idea is to let people guess and if they can't then reveal it. Anyway i have another one for you guys another metal classic of course smile.gif


BPM: 210

E------------------------------------------------------------------------------------------------------------------------
B------------------------------------------------------------------------------------------------------------------------
G------------------------------------------------------------------------------------------------------------------------
D------------------------------------------------------------------------------------------------------------------------ REPEAT
A--2------------------------------3-3-----------------------------4-4---------------------------------------------7---6-
E--0-0-0-0-0-0-0-0-0-0-0-0-1-1-0-0-0-0-0-0-0-0-0-0-0-2-2-0-0-0-0-0-0-0-0-0-0-0-0-0-0-1-0-1-5---4-


A bit fast paced but not too difficult. Also the tuning is Eb.


Slayer biggrin.gif
Angel of Death


--------------------
Guitars: Schecter Stiletto Classic, Jackson SLSMG, Ibanez RG-380 Japan, Gibson Les Paul Studio

Amp: Marshall JMP-1 -> Rocktron Velocity 100 -> Marshall JCM-900 Lead 4x12

FX and stomps: T.C Electronics G-Sharp, Korg SDD-1200, Emma Transmorgrifier, BYOC Tribooster, GGG Green Ringer, Dinosaur Overdrive, Voodoo Lab SuperFuzz, Sovtek Bassballs, Line6 Tap Tremolo, EHX Screaming Bird.


___________________________________________________
My Lessons!

My Instructor Board!

My Myspace!
Go to the top of the page
 
+Quote Post
steve25
post Mar 30 2008, 11:55 PM
Post #76


GMC:er
*

Group: Members
Posts: 1.197
Joined: 19-April 07
From: Wiltshire, England
Member No.: 1.626



QUOTE (Trond Vold @ Mar 30 2008, 11:49 PM) *
Slayer biggrin.gif
Angel of Death


Yep, very good man smile.gif
Go to the top of the page
 
+Quote Post
steve25
post Mar 30 2008, 11:56 PM
Post #77


GMC:er
*

Group: Members
Posts: 1.197
Joined: 19-April 07
From: Wiltshire, England
Member No.: 1.626



QUOTE (Capt.Z @ Mar 30 2008, 11:48 PM) *
try this one! its very easy! tongue.gif
|--------------------------------------------------
|-------------------------------------------------- *this is
|-------------------------------------------------- the rhythm
|----7--7/9-9--12\11-12\11-12\11--7-7/9-9--
|-9--5--5/7-7--10\9--10\9--10\9---5-5/7-7---
|-7------------------------------------------------


Black Sabbath - Iron Man smile.gif
Go to the top of the page
 
+Quote Post
Capt.Z
post Mar 31 2008, 12:31 AM
Post #78


GMC:er
*

Group: Members
Posts: 999
Joined: 18-February 08
From: Detroit (unfortunately...)
Member No.: 4.293



QUOTE (steve25 @ Mar 30 2008, 06:56 PM) *
Black Sabbath - Iron Man smile.gif

Amazing! blink.gif howdy do it? tongue.gif


--------------------

GMC IS TIGHT DAWG
Go to the top of the page
 
+Quote Post
Batista
post Apr 2 2008, 06:57 PM
Post #79


GMC:er
*

Group: Members
Posts: 213
Joined: 13-July 07
From: Sandefjord, Norway
Member No.: 2.301



Is it the person who guesses right who can post a tab next, or can anyone just put a tab in when they want? Seems like the last even though I believe the purpose is the first biggrin.gif Just wondering, no offense meant to anyone or anything.


--------------------
Seven Deadly Sins, One Deadly Syn

Gear list:
Gibson Les Paul Studio Alpine White
Schecter Damien-6
Vox AD30VT
Boss DS-1
Boss MT-2
Go to the top of the page
 
+Quote Post
SinoMan
post Apr 2 2008, 07:04 PM
Post #80


GMC:er
*

Group: Members
Posts: 334
Joined: 11-February 08
From: Slovakia
Member No.: 4.214



QUOTE (Batista @ Apr 2 2008, 07:57 PM) *
Is it the person who guesses right who can post a tab next, or can anyone just put a tab in when they want? Seems like the last even though I believe the purpose is the first biggrin.gif Just wondering, no offense meant to anyone or anything.


Good question.


--------------------
I got a completely new $600 bass for $300. What a deal!
Go to the top of the page
 
+Quote Post

5 Pages V  « < 2 3 4 5 >
Fast ReplyReply to this topicStart new topic
1 User(s) are reading this topic (1 Guests and 0 Anonymous Users)
0 Members:

 


RSS Lo-Fi Version Time is now: 31st March 2017 - 01:33 AM