5 Pages V  « < 3 4 5  
Reply to this topicStart new topic
> Guess The Song
Tuubsu
post Apr 2 2008, 07:06 PM
Post #81


GMC:er
*

Group: Members
Posts: 795
Joined: 28-August 07
From: Lappeenranta, Finland
Member No.: 2.620



QUOTE (Batista @ Apr 2 2008, 08:57 PM) *
Is it the person who guesses right who can post a tab next, or can anyone just put a tab in when they want? Seems like the last even though I believe the purpose is the first biggrin.gif Just wondering, no offense meant to anyone or anything.


Does it really matter? I think it's nice to have more than one going at once.


--------------------
Anyone can learn to play fast, like anyone can learn to type quickly. But not everyone can write a book.
- Yngwie J. Malmsteen


Idols:

Jason Becker (ex-Cacophony, ex-David Lee Roth, Solo)
Marty Friedman (ex-Cacophony, ex-Megadeth, Solo)
Niccolo Paganini (Solo)
Eddie Van Halen (Van Halen....Duh!)
Frederic Chopin (Solo)

Go to the top of the page
 
+Quote Post
coffeeman
post Apr 2 2008, 07:12 PM
Post #82


Experienced Tone Seeker
*

Group: Members
Posts: 1.753
Joined: 15-September 07
From: Bogota,Colombia
Member No.: 2.793



Here goes mine

E --------------|----------------|--------------|
B --------------|----------------|--------------|
G 8-9---10------|8--9---10-------|8-9---10------|
D 8-9---10------|8--9---10-------|8-9---10------|
A 6-7---8-------|10-11--12-------|6-7---8-------|
E 6-7---8-------|----------------|6-7---8-------|


--------------------
The only thing yo can do, is what you love!

Visit my youtube
Go to the top of the page
 
+Quote Post
SinoMan
post Apr 2 2008, 07:12 PM
Post #83


GMC:er
*

Group: Members
Posts: 334
Joined: 11-February 08
From: Slovakia
Member No.: 4.214



Okay then. I bet no one will guess this right:

CODE
  S T T T T S T T T T  S T T S T T S T T S T T S T T  
-----------------------------------------------------|
-----------------------------------------------------|
-----------------------------------------------------|
-----------------------------------------------------|
--7---------7---------10-----9-----5-----7-----9-----|
----7---7-----7---7------7-----7-----7-----7-----7---|

CODE
   S T T T T  S T T T T E   E   S S  S S S S  
---------------------------------------------|
---------------------------------------------|
---------------------------------------------|
------------------------9--------------9---9-|
--10---------10------------12--10-9-10---9---|
-----7---7------7---7------------------------|


The legend is:

CODE
W - whole
H - half
Q - quarter
E - 8th
S - 16th
T - 32nd


This post has been edited by SinoMan: Apr 2 2008, 07:18 PM


--------------------
I got a completely new $600 bass for $300. What a deal!
Go to the top of the page
 
+Quote Post

5 Pages V  « < 3 4 5
Fast ReplyReply to this topicStart new topic
1 User(s) are reading this topic (1 Guests and 0 Anonymous Users)
0 Members:

 


RSS Lo-Fi Version Time is now: 23rd March 2017 - 09:32 AM