Reply to this topicStart new topic
> Akira Yamaoka - Promise (reprise) Cover, Silent Hill 2 Song
The Uncreator
post Mar 14 2008, 11:12 AM
Post #1


Fire Up The Blades, Moderator
Group Icon

Group: GMC Senior
Posts: 8.933
Joined: 6-March 07
From: St. Petersburg, Florida
Member No.: 1.304



Got bored and recorded a quick cover of the famous interlude from Silent Hill 2, Promise (Reprise), By one of my favorite composers, Akira Yamaoka. Im guessing Silent Hill fans will think its pretty cool, I did my best at trying to transcribe the piano to guitar, The second to last part, ( After the lead/ Counterpoint melody) im trying to figure out how to produce on guitar.[attachment=5634:Promise__Reprise_.mp3]

This post has been edited by The Uncreator: Mar 19 2008, 03:26 AM
Attached File(s)
Attached File  Promise__Reprise_.mp3 ( 1.71MB ) Number of downloads: 244
 
Go to the top of the page
 
+Quote Post
Mark.
post Mar 14 2008, 11:17 AM
Post #2


GMC:er
*

Group: Members
Posts: 847
Joined: 8-January 08
Member No.: 3.764



Sounds nice !! Could you post the tabs ohmy.gif?

Mark. smile.gif
Go to the top of the page
 
+Quote Post
The Uncreator
post Mar 14 2008, 11:25 AM
Post #3


Fire Up The Blades, Moderator
Group Icon

Group: GMC Senior
Posts: 8.933
Joined: 6-March 07
From: St. Petersburg, Florida
Member No.: 1.304



|-------10------------10-----------10-------------10------
|----11----11-----11----11----11-----11-----11-----11--
|-12------------8-------------9-------------8-------------- Quarter Notes
|------------------------------------------------------------
|------------------------------------------------------------
|------------------------------------------------------------

The Lead

|-------------------------------------------------------------------------------------------------
|---------13-15-15-13------------------------------13-----------------------------------------
|-12-15----------------15-14-12-----15---12-14------15--14--12--15-14-12------14--12--
|------------------------------------13-------------------------------------------------15-----------
|-------------------------------------------------------------------------------------------------
|--------------------------------------------------------------------------------------------------


Tempo = 148
Tuning = E

This post has been edited by The Uncreator: Mar 14 2008, 11:26 AM
Go to the top of the page
 
+Quote Post
Iluha
post Mar 14 2008, 07:05 PM
Post #4


GMC:er
*

Group: Members
Posts: 1.737
Joined: 14-April 07
From: Karmiel, Israel
Member No.: 1.574



Oh my god... I was haunted by this theme when I heard it, it's so damn good, but I never knew it's name, so thanks for that biggrin.gif

but doesn't it turn to distortion at some point?

EDIT : Oh I confused it with laura's theme! man, I think I might cover it toomarow, what an awesome melody.

This post has been edited by Iluha: Mar 14 2008, 07:08 PM


--------------------


My Latest Upload: Here!

My Practice Agenda/Blog: Here!
Go to the top of the page
 
+Quote Post
The Uncreator
post Mar 14 2008, 07:25 PM
Post #5


Fire Up The Blades, Moderator
Group Icon

Group: GMC Senior
Posts: 8.933
Joined: 6-March 07
From: St. Petersburg, Florida
Member No.: 1.304



Yeah i plan on doing a bunch of covers of Yamaokas work, Theme Of Laura, Pianissimo Epilogue, Promise (Not the reprise), and some others smile.gif
Go to the top of the page
 
+Quote Post

Reply to this topicStart new topic
1 User(s) are reading this topic (1 Guests and 0 Anonymous Users)
0 Members:

 


RSS Lo-Fi Version Time is now: 20th September 2017 - 02:00 PM