Reply to this topicStart new topic
> This Chineses Solo
guitargod
post Mar 25 2008, 05:23 PM
Post #1


GMC:er
*

Group: Members
Posts: 96
Joined: 5-April 07
Member No.: 1.485



can someone help me to tab the solo of this chinese song? i think its in aminor key nt really sure though
https://www.youtube.com/watch?v=Fbi8YzCcu3U...feature=related


--------------------
live everyday of your life like its your last n treasure everything and everyone around you to the fullest!!!
max life!!!
Go to the top of the page
 
+Quote Post
Iluha
post Mar 25 2008, 05:42 PM
Post #2


GMC:er
*

Group: Members
Posts: 1.737
Joined: 14-April 07
From: Karmiel, Israel
Member No.: 1.574



QUOTE (guitargod @ Mar 25 2008, 06:23 PM) *
can someone help me to tab the solo of this chinese song? i think its in aminor key nt really sure though
https://www.youtube.com/watch?v=Fbi8YzCcu3U...feature=related


Well it's in E minor, I'll try tabbing it out for ya today if no one beats me to it =p


--------------------


My Latest Upload: Here!

My Practice Agenda/Blog: Here!
Go to the top of the page
 
+Quote Post
Iluha
post Mar 25 2008, 06:31 PM
Post #3


GMC:er
*

Group: Members
Posts: 1.737
Joined: 14-April 07
From: Karmiel, Israel
Member No.: 1.574



E------------------------12-15-15brb~---------------------------------------------------------------------------------
B-------------12-13-15----------------------12-15-12~--17brb~-------------------15-17-18~--------12---------
G-14~----14----------------------------14-----------------------16-14-17-14~-17--------------14-13----13~-----
D------------------------------------------------------------------------------------------------------------------------
A-------------------------------------------------------------------------------------------------------------------------
E-------------------------------------------------------------------------------------------------------------------------

E---------------------------------------12~/13---------13---------13--------------16--------16---------16-----16brb~--
B---------------12--------------12-13----------15---------15-------------------------17-15-----17-15-----17----
G--14br-14~------14----14~----------------------14---------14-----14-14brb~------------------------------
D----------------------14--------------------------------------------------------------------------------------------------
A--------------------------------------------------------------------------------------------------------------------------
E----------------------------------------------------------------------------------------------------------------------------

E------------12-13-15~-13-12-13-15~------------------------------------------------------------------
B-12-13-15------------------------------15----15-12~-12-13-12~-12/13--------------12-14-17-17b~--
G---------------------------------------------14---------------------------------14-14~---------------------
D-----------------------------------------------------------------------------------------------------------
A-----------------------------------------------------------------------------------------------------------
E------------------------------------------------------------------------------------------------------------

Not that sure about one note in the end but overall I think it's preety accurate, have fun smile.gif

This post has been edited by Iluha: Mar 25 2008, 07:30 PM


--------------------


My Latest Upload: Here!

My Practice Agenda/Blog: Here!
Go to the top of the page
 
+Quote Post
kaznie_NL
post Mar 25 2008, 06:54 PM
Post #4


Experienced Tone Seeker
*

Group: Passive
Posts: 4.809
Joined: 8-December 07
From: Hedel, Netherlands
Member No.: 3.471



Waaah...you do that fast m8! Nice pair of ears you got there tongue.gif


--------------------
My YouTube Channel Here

My Rec Takes Here


--- GEAR ---
Ibanez SA08LTD2 BAR
Vox AD50VT
Pod Farm
Line 6 Pod Studio GX
El Cheapo Strat
Dunlop Slide
Korg Toneworks AX5G
Go to the top of the page
 
+Quote Post
mattacuk
post Mar 25 2008, 07:17 PM
Post #5


Lets go fishing!
Group Icon

Group: GMC Senior
Posts: 5.526
Joined: 21-December 06
From: illinois
Member No.: 1.001



Impressive work iluha ! biggrin.gif


--------------------
mysql> SELECT * FROM master_name WHERE ((firstname = 'Paul') AND (lastname = 'Gilbert'));


"The Fundimental Difference between Paul Gilbert and Buckethead is that Paul Explores the Good side of the force, while Buckethead Explores the Dark Side of the Force" :)
Go to the top of the page
 
+Quote Post
Iluha
post Mar 25 2008, 07:31 PM
Post #6


GMC:er
*

Group: Members
Posts: 1.737
Joined: 14-April 07
From: Karmiel, Israel
Member No.: 1.574



Thanks guys.. was working on learning stuff by ear alot lately smile.gif


--------------------


My Latest Upload: Here!

My Practice Agenda/Blog: Here!
Go to the top of the page
 
+Quote Post
Bogdan Radovic
post Mar 26 2008, 12:33 AM
Post #7


Bass & Beginner Instructor
Group Icon

Group: GMC Instructor
Posts: 15.612
Joined: 30-November 07
From: Belgrade, Serbia
Member No.: 3.410



Great job Iluha !!


--------------------
For GMC support please email support (at) guitarmasterclass.net
Check out my lessons and my instructor board.
Check out my beginner guitar lessons course! ; Take a bass course now!
My solo and band songs : Keep Going On, Night Vibe, Kad Te Vidim, Susret, Plava Silueta
Go to the top of the page
 
+Quote Post
audiopaal
post Mar 26 2008, 12:47 AM
Post #8


Competitions Coordinator - Up the Irons
Group Icon

Group: GMC Senior
Posts: 5.447
Joined: 17-February 08
From: Stavanger, Norway
Member No.: 4.276



Great and fast job Iluha smile.gif
Go to the top of the page
 
+Quote Post
guitargod
post Mar 26 2008, 05:57 PM
Post #9


GMC:er
*

Group: Members
Posts: 96
Joined: 5-April 07
Member No.: 1.485



QUOTE (mattacuk @ Mar 25 2008, 07:17 PM) *
Impressive work iluha ! biggrin.gif

wow, u are really good at this man, do u mind helping me with another song? this solo starts at 3:35 of the song, i think it should be in G key if i am correct this time round haha.
https://www.youtube.com/watch?v=AkI0wjt3U9I

This post has been edited by guitargod: Mar 26 2008, 05:58 PM


--------------------
live everyday of your life like its your last n treasure everything and everyone around you to the fullest!!!
max life!!!
Go to the top of the page
 
+Quote Post
Iluha
post Mar 27 2008, 12:05 AM
Post #10


GMC:er
*

Group: Members
Posts: 1.737
Joined: 14-April 07
From: Karmiel, Israel
Member No.: 1.574



QUOTE (guitargod @ Mar 26 2008, 06:57 PM) *
wow, u are really good at this man, do u mind helping me with another song? this solo starts at 3:35 of the song, i think it should be in G key if i am correct this time round haha.
https://www.youtube.com/watch?v=AkI0wjt3U9I


Thanks! smile.gif sure man, I'll try doing it toomarow if no one beats me to it!(would do it now, but it's 1:30 am and I need to wake up in 5 hours lol)


--------------------


My Latest Upload: Here!

My Practice Agenda/Blog: Here!
Go to the top of the page
 
+Quote Post
Iluha
post Mar 27 2008, 06:50 PM
Post #11


GMC:er
*

Group: Members
Posts: 1.737
Joined: 14-April 07
From: Karmiel, Israel
Member No.: 1.574



Sorry for the delay.. but I won't have the time to tab it out today either, I'll try toomarow sad.gif

Well sorry man you got it wrong again XD, it's actually F minor which makes it G# major key, you were close though!

This post has been edited by Iluha: Mar 27 2008, 06:51 PM


--------------------


My Latest Upload: Here!

My Practice Agenda/Blog: Here!
Go to the top of the page
 
+Quote Post
guitargod
post Mar 27 2008, 07:01 PM
Post #12


GMC:er
*

Group: Members
Posts: 96
Joined: 5-April 07
Member No.: 1.485



QUOTE (Iluha @ Mar 27 2008, 12:05 AM) *
Thanks! smile.gif sure man, I'll try doing it toomarow if no one beats me to it!(would do it now, but it's 1:30 am and I need to wake up in 5 hours lol)

thanks alot man for your help man tongue.gif btw how long have u been learning by ear actually?


--------------------
live everyday of your life like its your last n treasure everything and everyone around you to the fullest!!!
max life!!!
Go to the top of the page
 
+Quote Post
Iluha
post Mar 27 2008, 08:36 PM
Post #13


GMC:er
*

Group: Members
Posts: 1.737
Joined: 14-April 07
From: Karmiel, Israel
Member No.: 1.574



QUOTE (guitargod @ Mar 27 2008, 08:01 PM) *
thanks alot man for your help man tongue.gif btw how long have u been learning by ear actually?

A month or two.. but iv'e got about 5 years worth of experience under my belt, so it defintly helps speed things up.


--------------------


My Latest Upload: Here!

My Practice Agenda/Blog: Here!
Go to the top of the page
 
+Quote Post

Fast ReplyReply to this topicStart new topic
1 User(s) are reading this topic (1 Guests and 0 Anonymous Users)
0 Members:

 


RSS Lo-Fi Version Time is now: 25th July 2017 - 09:52 PM