Reply to this topicStart new topic
> 2 Hand Finger Tapping Short Lesson
karmstrong9
post Mar 26 2008, 05:50 PM
Post #1


GMC:er
*

Group: Members
Posts: 6
Joined: 8-January 08
From: Glendale Arizona
Member No.: 3.758





Hi,

This is just short lesson on finger tapping that I have been playing around with.
This lesson is just learning the pattern and you should be able to use it to create your own songs.
Have fun with this one!!!

------------------------------------------------------------------------------------------------------------------------------
2 HAND TAPPING - SHORT LESSON

MAIN SONG
Attached File  2_hand_tapping_short_lesson.avi ( 3.13MB ) Number of downloads: 1348


GUITAR PRO
Attached File  2_hand_tapping_short_lesson.gp5 ( 2.26K ) Number of downloads: 361


PDF
Attached File  2_hand_tapping_short_lesson.pdf ( 86.63K ) Number of downloads: 415


------------------------------------------------------------------------------------------------------------------------------

PART 1
You will mostly be using your index finger and middle finger on the left hand and index on the right (opposite for left hand players) Start off slowy and then try to build up speed. You can play it as fast or slow as you want.

Attached File  2_hand_tapping_short_lesson___part_1.avi ( 4.9MB ) Number of downloads: 442


This is all straight tapping
Repeat 4 times

E|----------------------------------------------------------------------------------------------------------------------------------------|
B|----------------------------------------------------------------------------------------------------------------------------------------|
G|-------7---0--4--------7---0--------5---0---2---------5----0------------------------5---0---------------------------5---0-------|
D|--5----------------5------------3-----------------3------------------5---0---2---------------------5---0---2----------------------|
A|-------------------------------------------------------------------3---------------3------------3------------------3------------------|
E|----------------------------------------------------------------------------------------------------------------------------------------|


PART 2
Attached File  2_hand_tapping_short_lesson___part_2.avi ( 4.46MB ) Number of downloads: 308


(Repeat this part 3 times)

E|-----------------------------------------------------------------------------------------------------------------------------------|
B|-----------------------------------------------------------------------------------------------------------------------------------|
G|-------5---0---2------5---0------------------------5---0-----------------------------------------------------------------------|
D|---3---------------3---------------5---0---2------------------------------------5---0----------------------------5---0--------|
A|-------------------------------3-----------------3---------------5---0---2---------------------5---0---2-----------------------|
E|--------------------------------------------------------------3---------------3------------3------------------3-------------------|


(Then do this part 1 time)

E|----------------------------------------------------------------------------------------------------------------------------------|
B|----------------------------------------------------------------------------------------------------------------------------------|
G|-------5---0---2------5---0------------------------5---0----------------------------------------------------------------------|
D|---3---------------3---------------5---0---2------------------------------------5---0-----------------------------------------|
A|-------------------------------3-----------------3---------------5---0---2-----------------------------------------------------|
E|--------------------------------------------------------------3---------------3------------3-------------------------------------|


I hope you enjoy this lesson. There will be more to come.

Thanks,
kevin

http://www.myspace.com/karmstrong9
https://www.youtube.com/user/karmstrong9

This post has been edited by karmstrong9: Mar 26 2008, 05:57 PM
Go to the top of the page
 
+Quote Post
Juan M. Valero
post Mar 26 2008, 10:12 PM
Post #2


Instructor
Group Icon

Group: GMC Instructor
Posts: 4.270
Joined: 6-August 07
From: Girona - Spain
Member No.: 2.484



Amazing lesson, I love it !!! wink.gif


--------------------
Go to the top of the page
 
+Quote Post
Muris Varajic
post Mar 27 2008, 01:25 PM
Post #3


Instructor
Group Icon

Group: GMC Instructor
Posts: 15.459
Joined: 22-June 07
From: Sarajevo,Bosnia
Member No.: 2.159



Great job once more Kevin! smile.gif


--------------------
Youtube
MySpace
Website



Album "Let It Out" on
iTunes
and CD Baby

Check out my video lessons and instructor board!

The Pianist
tune is progress,check it out!

"ok.. it is great.. :P

have you myspace? Can i to personalize this for you guy?"
Go to the top of the page
 
+Quote Post
Chris Evans
post Mar 28 2008, 11:25 AM
Post #4


Learning Tone Guru - Community Coordinator & Moderator
Group Icon

Group: GMC Senior
Posts: 6.319
Joined: 24-September 07
From: Sittingbourne, UK
Member No.: 2.860



Nice one Kevin, gr8 add on to your first lesson! biggrin.gif



--------------------
Show us what part of the world you live in and get yourself
ON THE GMC:er Location MAP
Go to the top of the page
 
+Quote Post
Kristofer Dahl
post Mar 28 2008, 11:42 AM
Post #5


GMC Founder & Rocker
Group Icon

Group: GMC Instructor
Posts: 14.957
Joined: 15-August 05
From: Stockholm, Sweden
Member No.: 2



Yes excellent stuff Kevin - we need more of this! biggrin.gif


--------------------
Go to the top of the page
 
+Quote Post
audiopaal
post Mar 28 2008, 12:38 PM
Post #6


Competitions Coordinator - Up the Irons
Group Icon

Group: GMC Senior
Posts: 5.447
Joined: 17-February 08
From: Stavanger, Norway
Member No.: 4.276



Awesome, thanks smile.gif
Go to the top of the page
 
+Quote Post
Hisham Al-Sanea
post May 3 2008, 10:43 PM
Post #7


Instructor
*

Group: Passive
Posts: 4.085
Joined: 19-October 07
From: middle east / lebanon
Member No.: 3.084



great work Kevin.


--------------------
Go to the top of the page
 
+Quote Post
Kapto
post Jun 18 2008, 08:27 AM
Post #8


GMC:er
*

Group: Members
Posts: 211
Joined: 9-December 07
From: Spain
Member No.: 3.479



Nice One KarmStrong9.
This tapping lesson goes straight to my practice agenda.
Thanks for sharing


--------------------
"It's a long way to the top..."
Go to the top of the page
 
+Quote Post
OrganisedConfusi...
post Jun 18 2008, 09:37 AM
Post #9


GMC:er
*

Group: Members
Posts: 5.635
Joined: 29-November 07
From: Nottingham, UK
Member No.: 3.401



I didn't even notice this lesson. Great job smile.gif


--------------------
Gear
Guitars:- Caparison Horus Snowcloud, Parker Nitefly M, Parker Nitefly SA, Gibson SG, Parker P10e, 40 Year Old Spanish Acoustic
Amps:- Framus Ruby Riot 2x12" stack
Go to the top of the page
 
+Quote Post
Henry Dietzel
post Jun 18 2008, 01:47 PM
Post #10


Instructor (former GMCer Hammerin Hank)
Group Icon

Group: GMC Instructor
Posts: 718
Joined: 1-May 08
From: Boston MA
Member No.: 5.018



I didn't notice it either until now, I can not get the vidoe to work.????


--------------------
I have learned a lot, but I still have a lot to learn


Check out my video lessons
Go to the top of the page
 
+Quote Post
Ivan Milenkovic
post Jun 19 2008, 10:50 PM
Post #11


Instructor
Group Icon

Group: GMC Instructor
Posts: 25.396
Joined: 20-November 07
From: Belgrade, Serbia
Member No.: 3.341



Short but very usable. Good job man smile.gif


--------------------
- Ivan's Video Chat Lesson Notes HERE
- Check out my GMC Profile and Lessons
- (Please subscribe to my) YouTube Official Channel
- Let's be connected through ! Facebook! :)
Go to the top of the page
 
+Quote Post
Sergio Dorado
post Jun 20 2008, 11:38 PM
Post #12


Flamenco Instructor
Group Icon

Group: GMC Instructor
Posts: 1.052
Joined: 15-April 08
From: Barcelona
Member No.: 4.906



cool lesson!


--------------------
Check out my video lessons!
Go to the top of the page
 
+Quote Post
Nemanja Filipovi...
post Jun 22 2008, 03:22 PM
Post #13


Singing Instructor
Group Icon

Group: GMC Instructor
Posts: 3.391
Joined: 23-January 08
Member No.: 3.960



Wow,great lesson Kevin.Really like the sound and vibe of it.smile.gif
Thanks.


--------------------
Check out my video lessons and instructor board!

Participate im my new Crazy Blues Collaboration
Go to the top of the page
 
+Quote Post
Bogdan Radovic
post Aug 11 2008, 03:57 PM
Post #14


Bass & Beginner Instructor
Group Icon

Group: GMC Instructor
Posts: 15.612
Joined: 30-November 07
From: Belgrade, Serbia
Member No.: 3.410



Very nice stuff Kevin ! Keep up the good work! smile.gif


--------------------
For GMC support please email support (at) guitarmasterclass.net
Check out my lessons and my instructor board.
Check out my beginner guitar lessons course! ; Take a bass course now!
My solo and band songs : Keep Going On, Night Vibe, Kad Te Vidim, Susret, Plava Silueta
Go to the top of the page
 
+Quote Post

Fast ReplyReply to this topicStart new topic
1 User(s) are reading this topic (1 Guests and 0 Anonymous Users)
0 Members:

 


RSS Lo-Fi Version Time is now: 16th January 2017 - 06:17 PM