Reply to this topicStart new topic
> Triplets And String Skipping Exersize
McSteed
post Apr 19 2008, 08:22 PM
Post #1


GMC:er
*

Group: Members
Posts: 2
Joined: 13-February 08
Member No.: 4.231



Hello folks,

I was trying get the feel of triplets and I found it was easier to grasp in short bursts. So I started doing this excersize with a G Lydian that helped. Once I had that down I was able to go up and down the scale and keep the beat. I keep upping the tempo trying to build speed. On a whim I started skipping strings and keeping the same patter going. Also I'm trying to go up one pattern and down another.

I set up a simple drum beat in Guitar Pro with the Hi-Hat as 8th note triplets.

|--3--| |--3--| |--3--| |--3--|
E E E E E E E E E E E E E H Q.
E||--------------------------------------|---------------------|
B||--------------------------------------|---------------------|
G||--------------------------------------|---------------------|
D||--------------------4-----------------|---------------------|
A||-----------4--5--7-----7--5--4--------|---------------------|
E||--3--5--7-----------------------7--5--|--3------------------|


|--3--| |--3--| |--3--| |--3--|
E E E E E E E E E E E E E Q. H
--------------------------------------|---------------------|
--------------------------------------|---------------------|
--------------------4-----------------|---------------------|
--------------------------------------|---------------------|
-----------4--5--7-----7--5--4--------|---------------------|
--3--5--7-----------------------7--5--|--3------------------|


|--3--| |--3--| |--3--| |--3--|
E E E E E E E E E E E E E Q. H
--------------------------------------|---------------------|
--------------------------------------|---------------------|
--------------------4-----------------|---------------------|
-----------4--5--7-----7--5--4--------|---------------------|
--------------------------------------|---------------------|
--3--5--7-----------------------7--5--|--3------------------|


|--3--| |--3--| |--3--| |--3--|
E E E E E E E E E E E E E Q. H
--------------------------------------|---------------------|
--------------------5-----------------|---------------------|
--------------------------------------|---------------------|
-----------4--5--7-----7--5--4--------|---------------------|
--------------------------------------|---------------------|
--3--5--7-----------------------7--5--|--3------------------|


|--3--| |--3--| |--3--| |--3--|
E E E E E E E E E E E E E Q. H
--------------------------------------|---------------------||
--------------------5-----------------|---------------------||
-----------4--6--7-----7--6--4--------|---------------------||
--------------------------------------|---------------------||
--------------------------------------|---------------------||
--3--5--7-----------------------7--5--|--3------------------||

This post has been edited by McSteed: Apr 19 2008, 08:24 PM
Attached File(s)
Attached File  Triplets_and_String_Skipping.gp5 ( 4.44K ) Number of downloads: 156
 
Go to the top of the page
 
+Quote Post

Fast ReplyReply to this topicStart new topic
1 User(s) are reading this topic (1 Guests and 0 Anonymous Users)
0 Members:

 


RSS Lo-Fi Version Time is now: 24th October 2017 - 03:19 AM