3 Pages V   1 2 3 >  
Reply to this topicStart new topic
> Rock N' Roll Lesson!, Student Instructor competition!
Rating 4 V
audiopaal
post May 4 2008, 08:26 PM
Post #1


Competitions Coordinator - Up the Irons
Group Icon

Group: GMC Senior
Posts: 5.447
Joined: 17-February 08
From: Stavanger, Norway
Member No.: 4.276



Attached Image

Hi guys!
I'm audiopaal, a 27 year old guitarist from Stavanger, Norway. This is my entry to the Student Instructor Competition.
If there's anything more you want to know about me, just ask smile.gif

Now that the formalities are out of the way, let's ROCK!!! laugh.gif

This is a Rock & Roll Lesson in the Key of B, for the seasoned beginner. It's fairly easy, but with a few tricks up its sleeve wink.gif
We'll be using the Mixolydian scale (I think laugh.gif) in B and E for this one (pictures below borrowed from jguitar.com)

Attached Image

Attached Image

The backing track is at 180BPM, now that's rock & roll people laugh.gif
There is also a 90BPM backingtrack included for slower practicing, as well as Guitarpro 5 files and full tab in txt format.

Techniques used:

- Rock & Roll Strumming
- Bends
- Alternate picking

Main video: Attached File  Main.avi ( 13.63MB ) Number of downloads: 2354


Video 1: Attached File  video1.avi ( 4.11MB ) Number of downloads: 1135


E||-----------------------|---------------------------|------------------------|
B||-----------------------|---------------------------|------------------------|
G||--4----4----4--2-------|---------------------------|--2----2----2--2--2-----|
D||--4----4----4--2----2--|--L--2--L--L---------------|--2----2----2--2--2--4--|
A||--2----2----2--0----2--|--L--2--L--L------------2--|--0----0----0--0--0-----|
E||--------------------0--|--L--0--0--0-0-0--2--4-----|------------------------|

-------------------------|
-------------------------|
-------------------------|
--L--2-----4----2-----4--|
--------0----------0-----|
-------------------------|


Video 2: Attached File  video2.avi ( 3.65MB ) Number of downloads: 515


-----------------------|---------------------------|
-----------------------|---------------------------|
--4----4----4--2-------|---------------------------|
--4----4----4--2----2--|-----L--L--L---------------|
--2----2----2--0----2--|-----L--L--L------------2--|
--------------------0--|--L--0--0--0-0-0--2--4-----|

------------------------|--------------------------|
------------------------|--------------------------|
--2----2----------------|--------------------------|
--2----2----4--2--4b----|--4--2--------------2--4--|
--0----0----------------|--------4--2--2--4--------|
------------------------|--------------------------|


Video 3: Attached File  video3.avi ( 3.94MB ) Number of downloads: 415


------------------------|-------------------------|
------------------------|-------------------------|
--9----9----9--9--9--6--|--L--6--6----6--6--6--6--|
--9----9----9--9--9--6--|--L--6--6----6--6--6--6--|
--7----7----7--7--7--4--|--L--4--4----4--4--4--4--|
------------------------|-------------------------|

------------------------|-------------------------|
------------------------|-------------------------|
--4----4----4--4--4--2--|-----L--L----------------|
--4----4----4--4--4--2--|--L--2--4--2----2--4--2--|
--2----2----2--2--2--0--|--L--0--0--0----0--0--0--|
------------------------|-------------------------|


Video 4: Attached File  video4.avi ( 3.76MB ) Number of downloads: 358


------------------------|
------------------------|
--9----9----9--9--9--6--|
--9----9----9--9--9--6--|
--7----7----7--7--7--4--|
------------------------|

-------------------------|------------------------|--------------------------|
-------------------------|------------------------|--------------------------|
--L--6--6----6--6--6--6--|--4----4----4--4--4--2--|-----L--------------------|
--L--6--6----6--6--6--6--|--4----4----4--4--4--2--|-----L--------------------|
--L--4--4----4--4--4--4--|--2----2----2--2--2--0--|--L--0--2--2b----0--------|
-------------------------|------------------------|--------------------2-----|


Video 5: Attached File  video5.avi ( 4.1MB ) Number of downloads: 367


------------------------|-------------------------|
------------------------|-------------------------|
--2----2----2--2--2--4--|--L--4--4----4--4--4--4--|
--2----2----2--2--2--4--|--L--4--4----4--4--4--4--|
--0----0----0--0--0--2--|--L--2--2----2--2--2--2--|
------------------------|-------------------------|

------------------------|-----------------------|
------------------------|-----------------------|
------------------------|-----------------------|
--2---------------------|--------------2--------|
--2------------------2--|--4--2--------2--------|
--0----0----0--2--4-----|--------4--2--0--------|


Video 6: Attached File  video6.avi ( 3.4MB ) Number of downloads: 376


------------------------|
------------------------|
--2----2----2--2--2--4--|
--2----2----2--2--2--4--|
--0----0----0--0--0--2--|
------------------------|

-------------------------|------------------------|----------------------|
-------------------------|------------------------|----------------------|
--L--4--4----4--4--4--4--|------------------------|----------------------|
--L--4--4----4--4--4--4--|--2----2----------------|--2----2--2----2------|
--L--2--2----2--2--2--2--|--2----2----------------|--2----2--2----2------|
-------------------------|--0----0----0--2--4--2--|--0----0--0----0------|


Video 7: Attached File  video7.avi ( 3.54MB ) Number of downloads: 384


------------------------|-------------------------|------------------------|
------------------------|-------------------------|------------------------|
--2----2----2--2--2--4--|--L--4--4----4--4--4--4--|------------------------|
--2----2----2--2--2--4--|--L--4--4----4--4--4--4--|--2----L----------------|
--0----0----0--0--0--2--|--L--2--2----2--2--2--2--|--2----L-------------4--|
------------------------|-------------------------|--0----0----4--0--0-----|

-------------------------|
-------------------------|
-------------------------|
-------------------------|
--2----------------------|
-----0--4--0--2--0----0--|


Video 8: Attached File  video8.avi ( 3.96MB ) Number of downloads: 364


------------------------|-------------------------|
------------------------|-------------------------|
--2----2----2--2--2--4--|--L--4--4----4--4--4--4--|
--2----2----2--2--2--4--|--L--4--4----4--4--4--4--|
--0----0----0--0--0--2--|--L--2--2----2--2--2--2--|
------------------------|-------------------------|

-------------------------|
-------------------------|
--6--6--6--6--6--4----2--|
--6--6--6--6--6--4----2--|
--4--4--4--4--4--2----0--|
-------------------------|


Video 9: Attached File  video9.avi ( 3.74MB ) Number of downloads: 395


--------------|-------------------|
--------------|-------------------|
--------------|--2----------------|
--------------|--2----------------|
----------0-0-|--0----------------|
--------------|-------------------|

-------------------|-----------------------|-------------------------||
-------------------|-----------------------|-------------------------||
--4----------------|-----------------------|-------------------------||
--4----------------|--2--------------------|--------------------2----||
--2----------------|--2-----------------2--|--4--2--------------2----||
-------------------|--0--------0--2--4-----|--------4--2--0--0--0----||


The point of this lesson is to rock out and have fun while doing it biggrin.gif
A fairly easy piece that is fun to play, for both beginners and seasoned players alike!

Backingtrack 180BPM: Attached File  normal_tempo.mp3 ( 1.53MB ) Number of downloads: 555


Backingtrack 90BPM: Attached File  90bpm.mp3 ( 3.06MB ) Number of downloads: 420


Tab GP5: Attached File  tab.gp5 ( 20.6K ) Number of downloads: 409


Tab Text: Attached File  tab.txt ( 9.67K ) Number of downloads: 403


Have fun guys, if there's anything you need help with or anything else just contact me via PM or write a comment in this thread and I'll do my best to help you smile.gif Also, if there's anything I could have done better explaining this lesson for you, let me know and I'll be sure to keep it in mind in future lessons!

audiopaal

This post has been edited by audiopaal: May 4 2008, 10:41 PM
Go to the top of the page
 
+Quote Post
superize
post May 4 2008, 09:35 PM
Post #2


Ultimate Tone Guru
Group Icon

Group: Student Instructor
Posts: 4.343
Joined: 26-July 07
From: Glommersträsk. Sweden
Member No.: 2.410



Great lesoona Audiopaal

Very nice done


--------------------
My Gear

Ibanez RG
Jackson js30 warrior
jackson rr24
Line 6 Spider III amp
Line 6 pod xt live
Washburn acoustic

Youtube Account
My bands Myspace


Go to the top of the page
 
+Quote Post
Capt.Z
post May 4 2008, 09:40 PM
Post #3


GMC:er
*

Group: Members
Posts: 999
Joined: 18-February 08
From: Detroit (unfortunately...)
Member No.: 4.293



Nice Hat! Nice Beard!

smile.gif

... ...

huh.gif

... Oh, yeah! Great Lesson!!


--------------------

GMC IS TIGHT DAWG
Go to the top of the page
 
+Quote Post
Hisham Al-Sanea
post May 4 2008, 09:49 PM
Post #4


Instructor
*

Group: Passive
Posts: 4.085
Joined: 19-October 07
From: middle east / lebanon
Member No.: 3.084



nice and great lesson and explanation audiopaal


--------------------
Go to the top of the page
 
+Quote Post
audiopaal
post May 4 2008, 10:07 PM
Post #5


Competitions Coordinator - Up the Irons
Group Icon

Group: GMC Senior
Posts: 5.447
Joined: 17-February 08
From: Stavanger, Norway
Member No.: 4.276



QUOTE (superize @ May 4 2008, 10:35 PM) *
Great lesoona Audiopaal

Very nice done


Thank you smile.gif


QUOTE (Capt.Z @ May 4 2008, 10:40 PM) *
Nice Hat! Nice Beard!

smile.gif

... ...

huh.gif

... Oh, yeah! Great Lesson!!


haha, thanks Captain, glad you like it biggrin.gif


QUOTE (Hisham Al-Sanea @ May 4 2008, 10:49 PM) *
nice and great lesson and explanation audiopaal


Thanks a lot smile.gif
Go to the top of the page
 
+Quote Post
Siggum
post May 4 2008, 10:12 PM
Post #6


GMC:er
*

Group: Members
Posts: 1.228
Joined: 3-January 08
From: Denmark
Member No.: 3.701



Hehe, nice one Audiopaal... melodic rocking cool.gif , was that the Gibson Les paul Junior you used here? great lesson m8.


--------------------


It dont mean a thing if it aint got that swing
Go to the top of the page
 
+Quote Post
audiopaal
post May 4 2008, 10:15 PM
Post #7


Competitions Coordinator - Up the Irons
Group Icon

Group: GMC Senior
Posts: 5.447
Joined: 17-February 08
From: Stavanger, Norway
Member No.: 4.276



QUOTE (Siggum @ May 4 2008, 11:12 PM) *
Hehe, nice one Audiopaal... melodic rocking cool.gif , was that the Gibson Les paul Junior you used here? great lesson m8.


Thanks Siggum, melodic rocking rules laugh.gif
Yeah, that is my Gibson Les Paul Junior smile.gif

Thanks, glad you liked it!
Go to the top of the page
 
+Quote Post
Jad Diab
post May 4 2008, 10:20 PM
Post #8


Instructor (former GMCer Zizi Top)
*

Group: Members
Posts: 792
Joined: 29-December 07
From: Paris France
Member No.: 3.642



you had to wait till the last minute to post your lesson tongue.gif
nice job man
and by the way, love the hat hehe


--------------------
I endorse Sp custom pickups

Check out some of my work :
Youtube
GMC lessons
Myspace
Go to the top of the page
 
+Quote Post
audiopaal
post May 4 2008, 10:33 PM
Post #9


Competitions Coordinator - Up the Irons
Group Icon

Group: GMC Senior
Posts: 5.447
Joined: 17-February 08
From: Stavanger, Norway
Member No.: 4.276



QUOTE (Zizi Top @ May 4 2008, 11:20 PM) *
you had to wait till the last minute to post your lesson tongue.gif
nice job man
and by the way, love the hat hehe


Yeah, I was a bit late this time laugh.gif
Better late than never, right!? smile.gif

Thanks man, the hat rules wink.gif
Go to the top of the page
 
+Quote Post
Trond Vold
post May 4 2008, 10:38 PM
Post #10


Instructor
Group Icon

Group: GMC Instructor
Posts: 3.497
Joined: 16-February 08
From: Norge!
Member No.: 4.261



Great lesson smile.gif
Took some work, but it finally came up smile.gif


--------------------
Guitars: Schecter Stiletto Classic, Jackson SLSMG, Ibanez RG-380 Japan, Gibson Les Paul Studio

Amp: Marshall JMP-1 -> Rocktron Velocity 100 -> Marshall JCM-900 Lead 4x12

FX and stomps: T.C Electronics G-Sharp, Korg SDD-1200, Emma Transmorgrifier, BYOC Tribooster, GGG Green Ringer, Dinosaur Overdrive, Voodoo Lab SuperFuzz, Sovtek Bassballs, Line6 Tap Tremolo, EHX Screaming Bird.


___________________________________________________
My Lessons!

My Instructor Board!

My Myspace!
Go to the top of the page
 
+Quote Post
audiopaal
post May 4 2008, 10:39 PM
Post #11


Competitions Coordinator - Up the Irons
Group Icon

Group: GMC Senior
Posts: 5.447
Joined: 17-February 08
From: Stavanger, Norway
Member No.: 4.276



QUOTE (Trond Vold @ May 4 2008, 11:38 PM) *
Great lesson smile.gif
Took some work, but it finally came up smile.gif


Thanks Trondinator! biggrin.gif
Yeah, it took some work, but I think it turned out great so it was worth it smile.gif


...and thanks for letting me use your video recording equipment smile.gif
Go to the top of the page
 
+Quote Post
Gus
post May 4 2008, 11:48 PM
Post #12


GMC:er
Group Icon

Group: Student Instructor
Posts: 999
Joined: 21-January 08
From: Brazil/Denmark
Member No.: 3.920



QUOTE (audiopaal @ May 4 2008, 11:33 PM) *
Yeah, I was a bit late this time laugh.gif
Better late than never, right!? smile.gif

Thanks man, the hat rules wink.gif

But you were not the last! tongue.gif I just posted mine (awaiting for approval). But someone can still beat me! laugh.gif

Nice lesson man. The sound is really clear and cool. What is the gear you used for your recording? (including guitar...)



--------------------
my "Thank you GMC!" video

If you like it please vote in the competition ;-)

Gus Stairway to Guitar Heaven - my practice agenda

Check out my lesson here Phrygian Dominant Solo lesson


Gear : Ibanez RGT320q (I just love the neck-thru sustain), Washburn EA-20SDL (acoustic 6 string), Standard strat (Mexico), POD X3 Live

Some of my Guitar heroes: Jimmy Page, Slash, Kirk Hammett, Augusto Licks, Joe Satriani, Gus G, David Gilmour, Mark Knopfler...
Go to the top of the page
 
+Quote Post
audiopaal
post May 5 2008, 12:09 AM
Post #13


Competitions Coordinator - Up the Irons
Group Icon

Group: GMC Senior
Posts: 5.447
Joined: 17-February 08
From: Stavanger, Norway
Member No.: 4.276



QUOTE (Gus @ May 5 2008, 12:48 AM) *
But you were not the last! tongue.gif I just posted mine (awaiting for approval). But someone can still beat me! laugh.gif

Nice lesson man. The sound is really clear and cool. What is the gear you used for your recording? (including guitar...)


You beat me??? Oh man sad.gif laugh.gif laugh.gif
Thanks, I recorded the guitar through a BOSS GT-8 multi-effects unit. The drums are Drumkit From Hell Superior (VST), and the Bass is Spectrasonics Trilogy (VST). I use the guitar on the picture, my Gibson Les Paul Nashville Junior smile.gif

Everything was recorded in Cubase, and as for video equipment you'd have to ask Trond Vold as he was nice enough to let me use his gear smile.gif
Go to the top of the page
 
+Quote Post
UncleSkillet
post May 5 2008, 03:01 AM
Post #14


Learning Tone Seeker
*

Group: Members
Posts: 1.525
Joined: 21-January 08
From: Cincinnati, Ohio
Member No.: 3.915



Sounds fun and cool. Nice job! smile.gif My problem is don't see any video. huh.gif Media player just plays the sound from your avi files. What media player are you guys using over their? Wanted to see you in your hat jamming. cool.gif


--------------------
"Think of a guitar solo as a paragraph. You need a clear beginning, a middle, and an end. Look at musical phrases like sentences, and make sure you break them up using punctuation—or space. You pause naturally when conversing, right? If you don't, you'll bore the listener. The same thing will happen with your audience if your solo is one dimensional. You'll wear them out and lose their attention." —Tom Principato
Go to the top of the page
 
+Quote Post
audiopaal
post May 5 2008, 09:39 AM
Post #15


Competitions Coordinator - Up the Irons
Group Icon

Group: GMC Senior
Posts: 5.447
Joined: 17-February 08
From: Stavanger, Norway
Member No.: 4.276



QUOTE (UncleSkillet @ May 5 2008, 04:01 AM) *
Sounds fun and cool. Nice job! smile.gif My problem is don't see any video. huh.gif Media player just plays the sound from your avi files. What media player are you guys using over their? Wanted to see you in your hat jamming. cool.gif


Thanks a lot mate smile.gif
Oh, that's a shame sad.gif You can use VLC or download codecs for windows media player to watch the videos I believe smile.gif
Maybe other people here know about other alternatives?

You should get it to work, and put on your hat and jam along biggrin.gif
Go to the top of the page
 
+Quote Post
DeepRoots
post May 5 2008, 09:43 AM
Post #16


Get to da Chopper!
Group Icon

Group: GMC Senior
Posts: 2.700
Joined: 18-March 07
From: South Wales, UK
Member No.: 1.374



Awesome lesson audiopaal! So fun sounding! And great explanation too- thanks alot smile.gif
Go to the top of the page
 
+Quote Post
audiopaal
post May 5 2008, 10:41 AM
Post #17


Competitions Coordinator - Up the Irons
Group Icon

Group: GMC Senior
Posts: 5.447
Joined: 17-February 08
From: Stavanger, Norway
Member No.: 4.276



QUOTE (DeepRoots @ May 5 2008, 10:43 AM) *
Awesome lesson audiopaal! So fun sounding! And great explanation too- thanks alot smile.gif


Thank you DeepRoots, glad you like it smile.gif
Go to the top of the page
 
+Quote Post
Canis
post May 5 2008, 12:04 PM
Post #18


Learning Rock Star
Group Icon

Group: GMC Wiki:er
Posts: 3.319
Joined: 22-October 07
From: Molde, Norway
Member No.: 3.108



Great lesson audiopaal ^^ That'll give me something to try out =)


--------------------
Go to the top of the page
 
+Quote Post
audiopaal
post May 5 2008, 12:37 PM
Post #19


Competitions Coordinator - Up the Irons
Group Icon

Group: GMC Senior
Posts: 5.447
Joined: 17-February 08
From: Stavanger, Norway
Member No.: 4.276



QUOTE (Canis @ May 5 2008, 01:04 PM) *
Great lesson audiopaal ^^ That'll give me something to try out =)


Thanks a lot Canis smile.gif

Please try it out, and let me know how you do smile.gif

If you want it would be great if you uploaded the results smile.gif
Go to the top of the page
 
+Quote Post
Jerry Arcidiacon...
post May 5 2008, 01:06 PM
Post #20


Instructor
Group Icon

Group: GMC Instructor
Posts: 3.220
Joined: 2-August 07
From: Turin, Italy
Member No.: 2.464



Great lesson audiopaal! I like your riffing smile.gif


--------------------

::: Main Gear :::

Guitars: Washburn N4 Vintage | Washburn N2 | Washburn WI67Pro | Washburn WG-587 | Washburn EA20B
Amps: Laney GH50L (head) | Laney GS410 & GS212IE (cabinets) | Rocktron PROGAP Ultra (rack preamp) | Rocktron Velocity 150 (power amp) | Marshall VS230 (combo)
FXs: Rocktron Intellifex + custom pedalboard (check my video demo)
Other: Shredneck | Intellitouch PT10 tuner
Picks: Esseti Picks

Software & Recording Gear: Cubase 4 | Overloud TH1 | Mackie Onyx 400F | EZdrummer | Korg Pandora PX4D


-------------------------------------------------------

myspace.com/jerryarcidiacono

Check out my video lessons and instructor board!
Go to the top of the page
 
+Quote Post

3 Pages V   1 2 3 >
Fast ReplyReply to this topicStart new topic
1 User(s) are reading this topic (1 Guests and 0 Anonymous Users)
0 Members:

 


RSS Lo-Fi Version Time is now: 19th September 2017 - 12:31 PM