2 Pages V  < 1 2  
Reply to this topicStart new topic
> Mixo-dorian Collab - The Final Mix Is Ready!, Final mix with comments...
Trond Vold
post May 27 2008, 08:14 AM
Post #21


Instructor
Group Icon

Group: GMC Instructor
Posts: 3.497
Joined: 16-February 08
From: Norge!
Member No.: 4.261



Top notch work from everyone smile.gif Was a pleasure to listen through it.


--------------------
Guitars: Schecter Stiletto Classic, Jackson SLSMG, Ibanez RG-380 Japan, Gibson Les Paul Studio

Amp: Marshall JMP-1 -> Rocktron Velocity 100 -> Marshall JCM-900 Lead 4x12

FX and stomps: T.C Electronics G-Sharp, Korg SDD-1200, Emma Transmorgrifier, BYOC Tribooster, GGG Green Ringer, Dinosaur Overdrive, Voodoo Lab SuperFuzz, Sovtek Bassballs, Line6 Tap Tremolo, EHX Screaming Bird.


___________________________________________________
My Lessons!

My Instructor Board!

My Myspace!
Go to the top of the page
 
+Quote Post
Bogdan Radovic
post May 27 2008, 07:32 PM
Post #22


Bass & Beginner Instructor
Group Icon

Group: GMC Instructor
Posts: 15.612
Joined: 30-November 07
From: Belgrade, Serbia
Member No.: 3.410



Great job everyone !! smile.gif


--------------------
For GMC support please email support (at) guitarmasterclass.net
Check out my lessons and my instructor board.
Check out my beginner guitar lessons course! ; Take a bass course now!
My solo and band songs : Keep Going On, Night Vibe, Kad Te Vidim, Susret, Plava Silueta
Go to the top of the page
 
+Quote Post
chmilew
post May 27 2008, 07:46 PM
Post #23


GMC:er
*

Group: Members
Posts: 579
Joined: 12-June 07
From: Paris, France
Member No.: 2.074



Thumbs up for everybody smile.gif
Go to the top of the page
 
+Quote Post
David Wallimann
post May 27 2008, 11:22 PM
Post #24


Instructor
*

Group: Members
Posts: 4.565
Joined: 29-March 07
From: Fort Collins, CO
Member No.: 1.439



You can post it here. I'm sure we'd all love to see tabs heree. :-)


--------------------
www.youtube.com/Wallimann
www.davidwallimann.com
Go to the top of the page
 
+Quote Post
OrganisedConfusi...
post May 28 2008, 11:06 AM
Post #25


GMC:er
*

Group: Members
Posts: 5.635
Joined: 29-November 07
From: Nottingham, UK
Member No.: 3.401



QUOTE (David Wallimann @ May 27 2008, 11:22 PM) *
You can post it here. I'm sure we'd all love to see tabs heree. :-)

Can I tab my solo out or is there no point?

What was the chord progression on this song?


--------------------
Gear
Guitars:- Caparison Horus Snowcloud, Parker Nitefly M, Parker Nitefly SA, Gibson SG, Parker P10e, 40 Year Old Spanish Acoustic
Amps:- Framus Ruby Riot 2x12" stack
Go to the top of the page
 
+Quote Post
David Wallimann
post May 28 2008, 02:55 PM
Post #26


Instructor
*

Group: Members
Posts: 4.565
Joined: 29-March 07
From: Fort Collins, CO
Member No.: 1.439



QUOTE (OrganisedConfusion @ May 28 2008, 06:06 AM) *
Can I tab my solo out or is there no point?

What was the chord progression on this song?



Absolutely!!!!
That would be fantastic! No real chord progression here, just a G7 type of lick...


--------------------
www.youtube.com/Wallimann
www.davidwallimann.com
Go to the top of the page
 
+Quote Post
Henry Dietzel
post May 28 2008, 05:12 PM
Post #27


Instructor (former GMCer Hammerin Hank)
Group Icon

Group: GMC Instructor
Posts: 718
Joined: 1-May 08
From: Boston MA
Member No.: 5.018



QUOTE (David Wallimann @ May 27 2008, 06:22 PM) *
You can post it here. I'm sure we'd all love to see tabs heree. :-)

I played the lead off the cuff so I will give a listen tonight when I get home, tab it out, and post it.

Thanks for the kind words about my playing David



As promised here is my tab for the mixo-dorian collab

|--------------------------------------------------|
|-17\9-----------------------------------------6/8-|
|-17\9---------x-x------3----pb5(6)br5p3---5-3-----|
|--------------x-x--3h5---5--------------5---------|
|-------15\3---x-x---------------------------------|
|-------15\3---------------------------------------|

|-----3-------------------------------6-8b(10)--pb8(10)br8p6---8-6--------|
|-6/3---3h6---3-------------------6-8------------------------8-----8-6-8~~|
|-----------5---6p5p3---5---3-5/7-----------------------------------------|
|---------------------5---5-----------------------------------------------|
|-------------------------------------------------------------------------|
|-------------------------------------------------------------------------|

|-7-8-9-10---------8-10------------------10b(12)-|
|----------10b(11)------10b(11)-8------8---------|
|----------------------------------7/9-----------|
|------------------------------------------------|
|------------------------------------------------|
|------------------------------------------------|

|-10-9p8------------------------------------------------------------------13----|
|--------11p8----11----8-------11-13-pb13(15)br13p11----13----11-13p11-------11-|
|-------------10----10---10/12-----------------------12----12----------12-------|
|-------------------------------------------------------------------------------|
|-------------------------------------------------------------------------------|
|-------------------------------------------------------------------------------|

|-------------------------------------|
|----13b(15)-13-11-13p11----13-11~~~\-|
|-12---------------------12-----------|
|-------------------------------------|
|-------------------------------------|
|-------------------------------------|


This post has been edited by Hammerin Hank: May 30 2008, 01:03 PM


--------------------
I have learned a lot, but I still have a lot to learn


Check out my video lessons
Go to the top of the page
 
+Quote Post
Jeff
post May 29 2008, 03:17 AM
Post #28


GMC:er
*

Group: Members
Posts: 877
Joined: 25-April 06
From: Virginia, US
Member No.: 706



Wow this is great guys! Excellent job!

Smells, I really dig the harmonies you played on this! I'd love to see the tab! wink.gif
Go to the top of the page
 
+Quote Post
Gabriel Leopardi
post May 29 2008, 04:41 AM
Post #29


Instructor
Group Icon

Group: GMC Instructor
Posts: 29.966
Joined: 3-March 07
From: Argentina
Member No.: 1.289



Great job everybody! I really enjoyed the final mix! smile.gif


--------------------
My lessons

Do you need a Guitar Plan?
Join Gab's Army

Check my band:Cirse
Check my soundcloud:Soundcloud

Please subscribe to my:Youtube Channel
Go to the top of the page
 
+Quote Post

2 Pages V  < 1 2
Reply to this topicStart new topic
1 User(s) are reading this topic (1 Guests and 0 Anonymous Users)
0 Members:

 


RSS Lo-Fi Version Time is now: 17th December 2017 - 03:15 AM