Reply to this topicStart new topic
> Far Beyond The Sun Question
Wassupwithat
post Apr 26 2006, 12:29 PM
Post #1


GMC:er
*

Group: Members
Posts: 123
Joined: 4-March 06
From: Singapore
Member No.: 510



First off I wanna say HI KRIS.

Ok well, since others might be having this problem, I thought I'd post it rather than email directly. I was wondering Kris, I'm not sure how to play this particular lick (I play it quite uneconomically) and was wondering how would you recommend playing it.

||-------------------|-------------------------|---------------------------|
||-------------------|-------------------------|---------------------------|
||-7-7-7-7-7-7-6-----|-------------------------|-----------6---------6-7---|
||---------------9-7-|-6-6-6-6-6-6-6-6-6-6-7-9-|-7-7-7-7-9---9-9-9-9-------|
||-------------------|-------------------------|---------------------------|
||-------------------|-------------------------|---------------------------|


---------9h10p9h10-----------9h10p9h10--|
----------------------------------------|
6h7p6h7-------------6h7p6h7--------|
----------------------------------------|
----------------------------------------|
----------------------------------------|

I find it rather strange shifting your left hand really quick up and down at Yngwie's speed, I was thinking maybe using the right hand to help tap the notes? What do you think?


--------------------
Go to the top of the page
 
+Quote Post
Kristofer Dahl
post Apr 26 2006, 04:11 PM
Post #2


GMC Founder & Rocker
Group Icon

Group: GMC Instructor
Posts: 14.958
Joined: 15-August 05
From: Stockholm, Sweden
Member No.: 2



Yes you could work out some way to play it with tapping. For me it wouldn't be easier, though.

Insetad, I would suggest an exercise where you play the same thing except you don't do any string skip (play all the notes on the estring). Eventually working your way to the stringskip.

K
Go to the top of the page
 
+Quote Post
Wassupwithat
post Apr 26 2006, 06:14 PM
Post #3


GMC:er
*

Group: Members
Posts: 123
Joined: 4-March 06
From: Singapore
Member No.: 510



Alright thanks, just checking


--------------------
Go to the top of the page
 
+Quote Post
Rob_g
post Apr 26 2006, 09:46 PM
Post #4


GMC:er
*

Group: Members
Posts: 377
Joined: 13-December 05
From: White River, Ont, Canada
Member No.: 196



I'm also wondering when your going to finish the lesson? I'm pretty much waiting on it to figure out he rest.

Or if someone has a tab for the rest of the solo?
Go to the top of the page
 
+Quote Post
Kristofer Dahl
post Apr 29 2006, 12:19 PM
Post #5


GMC Founder & Rocker
Group Icon

Group: GMC Instructor
Posts: 14.958
Joined: 15-August 05
From: Stockholm, Sweden
Member No.: 2



It will be up, patience patience... smile.gif
Go to the top of the page
 
+Quote Post

Fast ReplyReply to this topicStart new topic
1 User(s) are reading this topic (1 Guests and 0 Anonymous Users)
0 Members:

 


RSS Lo-Fi Version Time is now: 20th January 2017 - 12:30 AM