Reply to this topicStart new topic
> Speed Metal Lesson
fkalich
post Jun 22 2008, 11:33 AM
Post #1


GMC:er
*

Group: Members
Posts: 2.728
Joined: 12-February 07
From: People's Republic of Lawrence Kansas
Member No.: 1.189



Lian: Like your sound.

The first section tab does not match the slow version. The tab is

D#||-------------------|-------------------------------------|
A#||-------------------|-------------------------------------|
F#||-------------------|--15-14-0-0-0-0-0-0-12-0-0-0-0-0-0-0-|
C#||-------------------|-------------------------------------|
G#||-------------------|-------------------------------------|
D#||-------------------|-------------------------------------|


and you play (repeating every other bar)

D#||-------------------|-------------------------------------|
A#||-------------------|-------------------------------------|
F#||-------------------|--15-14-0-0-12-0-0-0-------------|
C#||-------------------|-------------------------------------|
G#||-------------------|-------------------------------------|
D#||-------------------|-------------------------------------|


Which is fine, I figured it out, provided indeed that is what you are doing on the fast version also. I think you are playing it there the same as in the slow example, but with the fast speed of the full version and backing track, pretty hard to tell for sure at this point. Can you verify for me that this is the case, and the tab is incorrect in this respect for the lesson? Thanks.

This post has been edited by fkalich: Jun 22 2008, 11:35 AM
Go to the top of the page
 
+Quote Post
Lian Gerbino
post Jun 23 2008, 05:54 AM
Post #2


Instructor
Group Icon

Group: GMC Instructor
Posts: 4.426
Joined: 14-April 08
From: Buenos Aires, Argentina
Member No.: 4.895



you right, tabs are wrong sad.gif

correct form is:


D#||-------------------|-------------------------------------|
A#||-------------------|-------------------------------------|
F#||-------------------|--15-14-0-0-12-0-0-0-------------|
C#||-------------------|-------------------------------------|
G#||-------------------|-------------------------------------|
D#||-------------------|-------------------------------------|

as you write here!
thanks fkalich, i´ll fix it


--------------------
Go to the top of the page
 
+Quote Post
fkalich
post Jun 23 2008, 05:57 AM
Post #3


GMC:er
*

Group: Members
Posts: 2.728
Joined: 12-February 07
From: People's Republic of Lawrence Kansas
Member No.: 1.189



thanks Lian. I want you to know how much I appreciate your play. You have something special, that goes beyond just your technique (which is of course great also). I feel I learn a lot from you, not just from your technique, but also your "groove".


QUOTE (Lian Gerbino @ Jun 22 2008, 11:54 PM) *
you right, tabs are wrong sad.gif

correct form is:


D#||-------------------|-------------------------------------|
A#||-------------------|-------------------------------------|
F#||-------------------|--15-14-0-0-12-0-0-0-------------|
C#||-------------------|-------------------------------------|
G#||-------------------|-------------------------------------|
D#||-------------------|-------------------------------------|

as you write here!
thanks fkalich, i´ll fix it

Go to the top of the page
 
+Quote Post
superize
post Jun 23 2008, 09:11 AM
Post #4


Ultimate Tone Guru
Group Icon

Group: Student Instructor
Posts: 4.343
Joined: 26-July 07
From: Glommersträsk. Sweden
Member No.: 2.410



QUOTE (fkalich @ Jun 23 2008, 06:57 AM) *
thanks Lian. I want you to know how much I appreciate your play. You have something special, that goes beyond just your technique (which is of course great also). I feel I learn a lot from you, not just from your technique, but also your "groove".


Yeah Lians lessons are killer and his technique is flawless


--------------------
My Gear

Ibanez RG
Jackson js30 warrior
jackson rr24
Line 6 Spider III amp
Line 6 pod xt live
Washburn acoustic

Youtube Account
My bands Myspace


Go to the top of the page
 
+Quote Post

Reply to this topicStart new topic
1 User(s) are reading this topic (1 Guests and 0 Anonymous Users)
0 Members:

 


RSS Lo-Fi Version Time is now: 28th March 2017 - 01:35 AM