2 Pages V   1 2 >  
Reply to this topicStart new topic
> What If Angus Was A Shredder !
Rating 5 V
Jad Diab
post Jun 24 2008, 10:34 PM
Post #1


Instructor (former GMCer Zizi Top)
*

Group: Members
Posts: 792
Joined: 29-December 07
From: Paris France
Member No.: 3.642



Hey GMCers, how are you,
This is my second lesson here on GMC, if you haven't checket out my first lesson yet, you can see it here.

In this lesson, we're going to work on a "in the style of AC/DC" backing track, by the way the chord progression of the verse is A - C - D - C ==> funny coincidence right wink.gif
As you may notice, my playing have nothing to do with Angus Young, it's just that I thought it might be cool to see how it would sound if angus was a shredder, so in my solo, you'll see a lot of shred runs, sweepings, and also some pinch harmonics. I hope you'll like my lesson, and I hope that I'll manage to be an instructor at GMC one day.

Main video :
The solo is in the key of A dorian, but I've used some out notes from time to time, check out the explanations below.
I'm using alternate picking all the time wink.gif
Attached File  main_video.wmv ( 16.31MB ) Number of downloads: 1216



Video 1 :
The video starts with some fast trills in order to create some tense and announce the begining of the solo and ends with a pinch harmonic followed by a bridge diving wink.gif
Attached File  1.wmv ( 7.76MB ) Number of downloads: 504

E|----------------------------|
B|----------------------------|
G|--------tr------------A.H---|
D|--5h7--5(7)--7b-7p5---4-----|
A|0-------------------7-------|
E|----------------------------|


Video 2 :
This lick starts with a 4 strings sweeping. Don't forget the small bend on B on the D string.
Attached File  2.wmv ( 10.76MB ) Number of downloads: 441

E|-----------------------------------|
B|--------10------10-8---------------|
G|------9-------9------9-------------|
D|---10------10----------9b-7--------|
A|12--------------------------10/12--|
E|-----------------------------------|


Video 3 :
Quite easy lick, don't forget to use palm muting
Attached File  3.wmv ( 3.34MB ) Number of downloads: 333

E|-------------------------------------|
B|-------------------------------------|
G|-------------------------------------|
D|------9------5---7/10------7-9-10/12-|
A|10-12---7-10---7------7-10-----------|
E|-------------------------------------|


Video 4 :
First shred run, practice it slowly, if you're using correct alternate picking, you should start with a downstroke and end up with a downstroke too. this run is followed by some bendings. While doing those bendings, it's important that your ring finger should be almost perpendicular to the fretboard, and be carreful not to touch the high E string while doing the bending, which will cause muting it.
Attached File  4.wmv ( 10.39MB ) Number of downloads: 475

E|-----------------------------------------------------------9----10---4---5---|
B|-----------------------------------------------------------12b--13b--7b--8b--|
G|---------------------------12-14-16-11-12-14-9-11-12-11--9-------------------|
D|------------------12-14-16---------------------------------------------------|
A|---------12-14-15------------------------------------------------------------|
E|12-14-15---------------------------------------------------------------------|


Video 5 :
Here we're using the tremolo to dive in and then I hit (with my left hand) the fretboard and then release the tremolo to create a note. By the way, have you noticed how I'm using palm muting to announce new shred runs ?
Attached File  5.wmv ( 3.41MB ) Number of downloads: 310

E|---------------------------------------|
B|---------------------------------------|
G|---------------------------------------|
D|-------------------------------5-7--4--|
A|----3----5--5p3-5p3------3-5-7---------|
E|3-5---5--------------3-5---------------|


Video 6 :
This shred run contains some wide sliding, practice it slowly, I'm sure you'll manage to do it. If you fail to reach the wanted note on the first slide, it's not really dramatical, but the second one should be played with accuracy, we want to go back to the root note wich is A.
Attached File  6.wmv ( 5.74MB ) Number of downloads: 346

E|------------------5-----------------------12-------------------|
B|------------5-7-8---8-7-5-7-7/19/12-13-15----15-13-12-12-13/22-|
G|------4-5-7----------------------------------------------------|
D|4-5-7----------------------------------------------------------|
A|---------------------------------------------------------------|
E|---------------------------------------------------------------|


Video 7 :
That's a really cool tap sweep, you can devided in to two sweeps. The first part is a CMajor arpegio followed by a tapping on the A note and then the second part is a 3 strings Aminor arpegio that ends on the A note too. When you're playing fast runs or fast sweepings, it's really important to focus on notes that last, that permits you to accentuate your playing, because listener's ears is attracted by those notes.
At the end of the lick we've got an out note (the major third), I really like how it sounds.
Attached File  7.wmv ( 2.55MB ) Number of downloads: 313

E|------------12h15h17p12p8----------------|
B|---------13--------T------10---10--------|
G|------12---------------------9-----7-6-5-|
D|---14------------------------------------|
A|15---------------------------------------|
E|-----------------------------------------|


Video 8 :
Okay so here we've got some string skipping, so again practice it slowly. smile.gif
Attached File  8.wmv ( 2.91MB ) Number of downloads: 299

E|-------------------------------------------------|
B|------------------------------7-8-10-8-7-9/10--9-|
G|------------------5-7-9--------------------------|
D|------5-7-9-------------5-7-9--------------------|
A|------------5-7-9--------------------------------|
E|5-7-8--------------------------------------------|


Video 9 :
Here I'm sounding a little like AC/DC hehe, there's a small sweep that permit us to go from one lick to another. Lot's of bending too, carefull to reach the pitch that we're looking after.
Attached File  9.wmv ( 6.14MB ) Number of downloads: 359

E|-------------------------------5--------5-------5--------5-----8b-8--------|
B|8b-8p5-7p5---5---5---5---5---5---8-5-8b---8-5-----8-5-8b---8-5------7-8-10-|
G|-----------7b--7b--7b--7b--7b-----------------7b---------------------------|
D|---------------------------------------------------------------------------|
A|---------------------------------------------------------------------------|
E|---------------------------------------------------------------------------|


Video 10 :
One more sweep at the beginning (the last one dry.gif ), if you've got some difficulities on fingering, you can choose the way you like it.
Attached File  10.wmv ( 3.31MB ) Number of downloads: 306

E|-------------------------------------------------------|
B|-------------------------------------------------------|
G|------12-14-12--11--9--7h9----9---------12----------14-|
D|---12-----------------------7---9----10----12----14----|
A|14--------------------------------12----------14-------|
E|-------------------------------------------------------|


Video 11 :
Here I'm using another out note, a really interesting one, I'm using a triton, it's a diminished fifth and it sounds spooky hehe, then I'm using my tremolo to create some harmonics, check out the "using the tremolo" part to see how I'm doing it, and then I'm muting the strings with my right hand in order to get a clean legato run. Check out the "switching the pick from the index finger to the middle finger" part to see how do I quickly change my pick position in order to get a good catch on the fretboard.
Attached File  11.wmv ( 17.9MB ) Number of downloads: 397

E|--------------------h12h14h15p14p12-------------------------------------------------------------|
B|-----------------------------------h15p12h13h15p13p12-------------------------------------------|
G|--9-8--5--12p11--9-----------------------------------h14p11h12h14p12p11-------------------------|
D|7----------------------------------------------------------------------h14p10h12h14p12p10/9--10-|
A|------------------------------------------------------------------------------------------------|
E|------------------------------------------------------------------------------------------------|


Video 12 :
I'm using the tremolo again to create some waing noise laugh.gif, then I'm following it by another shred run smile.gif.
Attached File  12.wmv ( 12.31MB ) Number of downloads: 434

E|--------------------------------------------------------------------------------------------------------|
B|--------------------------------------------------------------------------------------------------------|
G|5--7--------5--7--------------------------9-11-12----------------------------11-12-14--12-11------------|
D|5--7--5--7--5--7------------------9-10-12---------------------------10-12-14-----------------14-12-11---|
A|------5--7----------------9-10-12--------------------------10-12-14-----------------------------------12|
E|------------------8-10-12-------------------------10-12-14----------------------------------------------|


Video 13 :
A quite easy lick that annouce the end of the solo, I'm using palm muting and I'm adding some vibrato on the last "chords".
Attached File  13.wmv ( 3.78MB ) Number of downloads: 303

E|--------------------------------|
B|-----------------------10----8--|
G|----------------7--5---9-----7--|
D|---------10---------------------|
A|10h11h12----0-0------0-----0----|
E|--------------------------------|


Video 14 :
Fast shred runs (actually same speed than the others lol), it's high on the fretboard, you might have some problems if you have big hand with long fingers like me, but practice slowly and I'm sure everybody can do it. At the last part of the tab, you hit the G note on the B strings 3 times (use your palm to create a staccato feel).
Attached File  14.wmv ( 21.6MB ) Number of downloads: 354

E|--------------------------------------------------------------------------------------------------------|
B|------------------------------------------------------------------------------------19-20-22-20-19-20b--|
G|--------12-14-16-17-16-14-----------------16-17-19-21-19-17-----------------17-19-21--------------------|
D|12-14-16-----------------17-16-14-16-17-19-----------------21-19-17-17-19-21----------------------------|
A|--------------------------------------------------------------------------------------------------------|
E|--------------------------------------------------------------------------------------------------------|


Video 15 :
I decided to finish the solo by a fast pentatonic lick smile.gif
Attached File  15.wmv ( 5.73MB ) Number of downloads: 303

E|----------------------------------------------------------------------------|
B|20-17----17-----------------------------------------------------------------|
G|------19----19-17-19-17----17-----------------------------------------------|
D|------------------------19----19-17-19-17----17-----------------------------|
A|------------------------------------------19----19-17-17-15----15-----------|
E|------------------------------------------------------------17----17-15-17--|


Backing track :
I've added some backing track, you can practice my lesson or JAM with the BT, and don't hesitate to upload your takes I'll be happy to listen to them. (I've had some problem with the backing tracks, actually I've lost the original one, so I made a new one)
Attached File  BT_80_.mp3 ( 2.15MB ) Number of downloads: 300

Attached File  BT_90_.mp3 ( 1.92MB ) Number of downloads: 276

Attached File  BT_100_.mp3 ( 1.72MB ) Number of downloads: 287

Attached File  BT_110_.mp3 ( 1.57MB ) Number of downloads: 291

Attached File  BT_120_.mp3 ( 1.44MB ) Number of downloads: 298

Guitar pro :
You'll find in it the solo + the backing track and some drums to create a sort of metronome.
Attached File  ac_dc_real.gp5 ( 15.96K ) Number of downloads: 231

Gear :
Ibanez RG prestige 1570 MRB with EMG 81/S/85 pickups
Line 6 POD X3
Marshall MG100DFX
Dunlop Jazz III Picks
Audacity
FL Studio 5.0
Vegas Movie Maker 6.0

I'll be happy to read your comments and feedbacks. If you've got any question, please don't hesitate to ask it.

Greetings,

Jad.

This post has been edited by Jad Diab: Nov 24 2008, 08:49 PM


--------------------
I endorse Sp custom pickups

Check out some of my work :
Youtube
GMC lessons
Myspace
Go to the top of the page
 
+Quote Post
mattacuk
post Jun 25 2008, 03:56 PM
Post #2


Lets go fishing!
Group Icon

Group: GMC Senior
Posts: 5.526
Joined: 21-December 06
From: illinois
Member No.: 1.001



Truley EXECELLENT lesson !!! 5* biggrin.gif biggrin.gif


--------------------
mysql> SELECT * FROM master_name WHERE ((firstname = 'Paul') AND (lastname = 'Gilbert'));


"The Fundimental Difference between Paul Gilbert and Buckethead is that Paul Explores the Good side of the force, while Buckethead Explores the Dark Side of the Force" :)
Go to the top of the page
 
+Quote Post
Henry Dietzel
post Jun 25 2008, 07:55 PM
Post #3


Instructor (former GMCer Hammerin Hank)
Group Icon

Group: GMC Instructor
Posts: 718
Joined: 1-May 08
From: Boston MA
Member No.: 5.018



Great job ZiZi keep em coming!!! wink.gif nice choice for a lesson


--------------------
I have learned a lot, but I still have a lot to learn


Check out my video lessons
Go to the top of the page
 
+Quote Post
Caelumamittendum
post Jun 25 2008, 08:21 PM
Post #4


Learning Rock Star
*

Group: Members
Posts: 4.684
Joined: 14-June 08
From: Copenhagen, Denmark
Member No.: 5.298



Great lesson man! Will check it out more thoroughly later on.


--------------------
Go to the top of the page
 
+Quote Post
Gus
post Jun 25 2008, 08:22 PM
Post #5


GMC:er
Group Icon

Group: Student Instructor
Posts: 999
Joined: 21-January 08
From: Brazil/Denmark
Member No.: 3.920



I usually don't rate topics. But I had to give you a 5. Nice job! wink.gif

This post has been edited by Gus: Jun 25 2008, 08:22 PM


--------------------
my "Thank you GMC!" video

If you like it please vote in the competition ;-)

Gus Stairway to Guitar Heaven - my practice agenda

Check out my lesson here Phrygian Dominant Solo lesson


Gear : Ibanez RGT320q (I just love the neck-thru sustain), Washburn EA-20SDL (acoustic 6 string), Standard strat (Mexico), POD X3 Live

Some of my Guitar heroes: Jimmy Page, Slash, Kirk Hammett, Augusto Licks, Joe Satriani, Gus G, David Gilmour, Mark Knopfler...
Go to the top of the page
 
+Quote Post
Siggum
post Jun 25 2008, 08:35 PM
Post #6


GMC:er
*

Group: Members
Posts: 1.228
Joined: 3-January 08
From: Denmark
Member No.: 3.701



Great job Zizi, its obvious that you put alot of work and effort into this lesson, awsome smile.gif


--------------------


It dont mean a thing if it aint got that swing
Go to the top of the page
 
+Quote Post
Jad Diab
post Jun 25 2008, 08:45 PM
Post #7


Instructor (former GMCer Zizi Top)
*

Group: Members
Posts: 792
Joined: 29-December 07
From: Paris France
Member No.: 3.642



Thank you all for these great comments, I've had some problems with the backing track, but I'll fix it tonight smile.gif
I'm happy you're enjoying my lesson smile.gif


--------------------
I endorse Sp custom pickups

Check out some of my work :
Youtube
GMC lessons
Myspace
Go to the top of the page
 
+Quote Post
Hisham Al-Sanea
post Jun 25 2008, 09:12 PM
Post #8


Instructor
*

Group: Passive
Posts: 4.085
Joined: 19-October 07
From: middle east / lebanon
Member No.: 3.084



i see a very good lesson here.


--------------------
Go to the top of the page
 
+Quote Post
Ivan Milenkovic
post Jun 25 2008, 09:19 PM
Post #9


Instructor
Group Icon

Group: GMC Instructor
Posts: 25.396
Joined: 20-November 07
From: Belgrade, Serbia
Member No.: 3.341



nice job Zizi, very interesting lesson. smile.gif


--------------------
- Ivan's Video Chat Lesson Notes HERE
- Check out my GMC Profile and Lessons
- (Please subscribe to my) YouTube Official Channel
- Let's be connected through ! Facebook! :)
Go to the top of the page
 
+Quote Post
superize
post Jun 25 2008, 11:50 PM
Post #10


Ultimate Tone Guru
Group Icon

Group: Student Instructor
Posts: 4.343
Joined: 26-July 07
From: Glommersträsk. Sweden
Member No.: 2.410



Very good lesson and awsome playing wink.gif


--------------------
My Gear

Ibanez RG
Jackson js30 warrior
jackson rr24
Line 6 Spider III amp
Line 6 pod xt live
Washburn acoustic

Youtube Account
My bands Myspace


Go to the top of the page
 
+Quote Post
Jad Diab
post Jun 26 2008, 12:37 AM
Post #11


Instructor (former GMCer Zizi Top)
*

Group: Members
Posts: 792
Joined: 29-December 07
From: Paris France
Member No.: 3.642



Thanks guys, I really appreciate it smile.gif


--------------------
I endorse Sp custom pickups

Check out some of my work :
Youtube
GMC lessons
Myspace
Go to the top of the page
 
+Quote Post
Nemanja Filipovi...
post Jun 26 2008, 04:25 AM
Post #12


Singing Instructor
Group Icon

Group: GMC Instructor
Posts: 3.391
Joined: 23-January 08
Member No.: 3.960



Great lesson,the tittle is great by the way,very in style of the lesson.smile.gif
Job well done.smile.gif


--------------------
Check out my video lessons and instructor board!

Participate im my new Crazy Blues Collaboration
Go to the top of the page
 
+Quote Post
chmilew
post Jun 26 2008, 10:46 AM
Post #13


GMC:er
*

Group: Members
Posts: 579
Joined: 12-June 07
From: Paris, France
Member No.: 2.074



Amazingly cool lesson smile.gif
Some great licks here !

5* ! biggrin.gif
Go to the top of the page
 
+Quote Post
OrganisedConfusi...
post Jun 26 2008, 10:48 AM
Post #14


GMC:er
*

Group: Members
Posts: 5.635
Joined: 29-November 07
From: Nottingham, UK
Member No.: 3.401



Awesome lesson. Another 5* from me. Great stuff here.


--------------------
Gear
Guitars:- Caparison Horus Snowcloud, Parker Nitefly M, Parker Nitefly SA, Gibson SG, Parker P10e, 40 Year Old Spanish Acoustic
Amps:- Framus Ruby Riot 2x12" stack
Go to the top of the page
 
+Quote Post
Jad Diab
post Jun 26 2008, 11:26 AM
Post #15


Instructor (former GMCer Zizi Top)
*

Group: Members
Posts: 792
Joined: 29-December 07
From: Paris France
Member No.: 3.642



Thanks for your rating guys, I'm really glad to see you like it, make me want to do more lessons wink.gif


--------------------
I endorse Sp custom pickups

Check out some of my work :
Youtube
GMC lessons
Myspace
Go to the top of the page
 
+Quote Post
jacmoe
post Jun 26 2008, 04:33 PM
Post #16


GMC:er
*

Group: Members
Posts: 562
Joined: 2-December 07
From: Denmark
Member No.: 3.432



Wow! This lesson absolutely rocks! laugh.gif biggrin.gif


--------------------
QUOTE ("Steve Vai")
Start by playing something - a bend, a riff, a scale, a song - very slowly; if you make a mistake, start over; do this over and over, until you can play it flawlessly - and I do mean flawlessly - many times in a row. Next, gradually increase the tempo. Eventually you'll be flailing like a madman.
Go to the top of the page
 
+Quote Post
Bogdan Radovic
post Jun 26 2008, 05:00 PM
Post #17


Bass & Beginner Instructor
Group Icon

Group: GMC Instructor
Posts: 15.612
Joined: 30-November 07
From: Belgrade, Serbia
Member No.: 3.410



Cool lesson mate ! smile.gif


--------------------
For GMC support please email support (at) guitarmasterclass.net
Check out my lessons and my instructor board.
Check out my beginner guitar lessons course! ; Take a bass course now!
My solo and band songs : Keep Going On, Night Vibe, Kad Te Vidim, Susret, Plava Silueta
Go to the top of the page
 
+Quote Post
jacmoe
post Jun 26 2008, 05:02 PM
Post #18


GMC:er
*

Group: Members
Posts: 562
Joined: 2-December 07
From: Denmark
Member No.: 3.432



You've got some tasty whammy bar use here! smile.gif

I need to study this! I sound like a drunk whenever I touch it! laugh.gif


--------------------
QUOTE ("Steve Vai")
Start by playing something - a bend, a riff, a scale, a song - very slowly; if you make a mistake, start over; do this over and over, until you can play it flawlessly - and I do mean flawlessly - many times in a row. Next, gradually increase the tempo. Eventually you'll be flailing like a madman.
Go to the top of the page
 
+Quote Post
Nick325
post Jun 26 2008, 05:22 PM
Post #19


GMC:er
*

Group: Members
Posts: 1.996
Joined: 24-July 07
From: Long Island, NY
Member No.: 2.387



awesome lesson
Go to the top of the page
 
+Quote Post
JuanMV
post Jun 26 2008, 06:10 PM
Post #20


Learning Tone Seeker
*

Group: Members
Posts: 183
Joined: 19-May 08
From: Buenos Aires
Member No.: 5.134



Dude, that was AMAZING. You should be an instructor already!
Go to the top of the page
 
+Quote Post

2 Pages V   1 2 >
Fast ReplyReply to this topicStart new topic
1 User(s) are reading this topic (1 Guests and 0 Anonymous Users)
0 Members:

 


RSS Lo-Fi Version Time is now: 16th December 2017 - 04:36 AM