Reply to this topicStart new topic
> Help Needed With My Transciption Of Soundgarden's Outshined
buttmonk
post Jun 26 2008, 08:01 AM
Post #1


GMC:er
*

Group: Members
Posts: 121
Joined: 28-August 07
From: Finland
Member No.: 2.621



Hi all,

I am having some trouble working out the pre-chorus from Soundgarden's Outshined, it first appears in the track at around the 1 minute mark. This tab is my interpretation of this bit of the track. I have been using some software that slows down the track but maintains the pitch of the notes and I am still not happy with this. Any help would be much appreciated dry.gif

Tuning is drop-D.


|----------|
|----------|
|-7--------|
|-7--------|
|-5--------|
|-0--------|
,,,x1

|----------------------------------------------------|
|-7--7-(7)-------------------------------------------|
|-7--7-(7)-7-(7)-------------------------------------|
|----------7-(7)------7--7-(7)-7-(7)--7/5-(5)-5------|
|-5--5-(5)------------7--7-(7)-7-(7)--7/5-(5)-5------|
|----------5-(5)------5—-5-(5)-7-(7)-—7/5-(5)-5------|
..x3

....then the little outro bit which I haven't got to yet...



Chears chaps and chappesses,

This post has been edited by buttmonk: Jun 26 2008, 08:02 AM


--------------------
Go to the top of the page
 
+Quote Post
OrganisedConfusi...
post Jun 26 2008, 10:12 AM
Post #2


GMC:er
*

Group: Members
Posts: 5.635
Joined: 29-November 07
From: Nottingham, UK
Member No.: 3.401



This tab is hundred percent right

http://www.ultimate-guitar.com/tabs/s/soun...ed_ver4_tab.htm


--------------------
Gear
Guitars:- Caparison Horus Snowcloud, Parker Nitefly M, Parker Nitefly SA, Gibson SG, Parker P10e, 40 Year Old Spanish Acoustic
Amps:- Framus Ruby Riot 2x12" stack
Go to the top of the page
 
+Quote Post
buttmonk
post Jun 26 2008, 04:21 PM
Post #3


GMC:er
*

Group: Members
Posts: 121
Joined: 28-August 07
From: Finland
Member No.: 2.621



QUOTE (OrganisedConfusion @ Jun 26 2008, 12:12 PM) *


Thanks for the input! There is some similarity between this and my version which is encouraging. However, I certainly don't know what I am talking about but I am still pretty sure that is not right either:)

Below is my more recent attempt, I am convinced that there are 2 sldes at the end there:


Pre-chorus intro
|-----------------|
|-----------------|
|-7---------------|
|-7---------------|
|-5---------------|
|-0---------------|

Pre-chorus main
|------------------||------------------------------|
|-7--7-(7)---------||--------------------------10--|
|-7--7-(7)-7-(7)---||-11--11-(11)/9-(9)-9/(11)-----|
|----------7-(7)---||------------------------------|
|-5--5-(5)---------||-9---9---(9)/7-(7)-7/(9)------|
|----------5-(5)---||------------------------------|
x3

Pre-chorus outro
|------------------------------|
|------------------------------|
|-9/(11)-11-11-11-11-----------|
|------------------------------|
|-7/(9)—-9--9--9--9--0---------|
|--------------------0---------|

(or cooler but probably wrong variant of main
|-----------------------------------|
|-------------------------------10--|
|-11--11-(11)/(12)/9-(9)-9/(11)-----|
|-----------------------------------|
|-9---9---(9)/(10)/7-(7)-7/(9)------|
|-----------------------------------|
)



This post has been edited by buttmonk: Jun 26 2008, 05:00 PM


--------------------
Go to the top of the page
 
+Quote Post

Reply to this topicStart new topic
1 User(s) are reading this topic (1 Guests and 0 Anonymous Users)
0 Members:

 


RSS Lo-Fi Version Time is now: 24th March 2017 - 07:20 AM