Reply to this topicStart new topic
> Lesson Help, Marcus Siepen's pentatonic solo
Ctodd
post Jun 27 2008, 12:24 AM
Post #1


GMC:er
*

Group: Members
Posts: 493
Joined: 15-October 07
From: Pennsylvania
Member No.: 3.051



Hi, I was trying to play this and the tab is a little confusing.

Video 3

Link To the lesson

when he moves up to the high E string he starts playing legato, and I watched his pick and he only picks 7 notes (maybe 8, I'm not sure about the last one) after he plays

e|-----5-8-5------5---
B|--------------8-----

is he hammering the fourth and fifth notes there?? Is he letting it continue to ring from when he pulled off?

and does whatever pattern it may be continue throughout as he decends the scale?


Can someone help me out because the way I'm playing it doesn't sound right.





e|------5-8-5---5--------------------|
B|-------------8---8-5-8-5---5------|
G|---------------------------7---7---|
D|------------------------------------|
A|------------------------------------|
E|------------------------------------|



e|------------------------------------------------------------------------------|
B|------------------------------------------------------------------------------|
G|--5-7-5---5-----------------------------------------------------------------|
D|---------7---7-5-7-5--------------------------------------------------------|
A|----------------------7-7----------------------------------------------------|
E|------------------------------------------------------------------------------|


Thanks alot!

-Chris

This post has been edited by Ctodd: Jun 27 2008, 02:48 AM


--------------------
QUOTE (Emir Hot @ Feb 5 2009, 03:41 AM) *
When you hear something that you really like, take guitar and kill the beast.
Go to the top of the page
 
+Quote Post

Fast ReplyReply to this topicStart new topic
1 User(s) are reading this topic (1 Guests and 0 Anonymous Users)
0 Members:

 


RSS Lo-Fi Version Time is now: 26th May 2017 - 02:47 AM