Reply to this topicStart new topic
> Duke Nukem Jam
DranoMax
post Jul 3 2006, 10:45 PM
Post #1


GMC:er
*

Group: Members
Posts: 20
Joined: 15-March 06
From: I'm not telling! But it is in the US. In Utah. Near Cedar City.
Member No.: 561



If you havn't already seen this video you should really check it out.

http://video.google.com/videoplay?docid=-5...862259533727503

I'd like to say it's me playing, but that would be an out and out lie. It has inspired me to try playing video game theme songs on guitar though. Anyone have any good ideas on theme songs?


--------------------
People make mistakes, that's why guns have bullets.
Go to the top of the page
 
+Quote Post
DanielM
post Jul 3 2006, 10:58 PM
Post #2


GMC:er
*

Group: Members
Posts: 95
Joined: 20-June 06
From: England
Member No.: 725



the legend of zelda is a cool theme tune if you can find it.

super mario bros. is another interesting one.
Go to the top of the page
 
+Quote Post
DranoMax
post Jul 3 2006, 11:01 PM
Post #3


GMC:er
*

Group: Members
Posts: 20
Joined: 15-March 06
From: I'm not telling! But it is in the US. In Utah. Near Cedar City.
Member No.: 561



Those would be pretty sweet. Got to make Mr. Myamoto proud.


--------------------
People make mistakes, that's why guns have bullets.
Go to the top of the page
 
+Quote Post
DanielM
post Jul 3 2006, 11:28 PM
Post #4


GMC:er
*

Group: Members
Posts: 95
Joined: 20-June 06
From: England
Member No.: 725



let me have a crack at tabbing out super mario if i can remember it correctly.

e--12-12-12-----12-15---------------------------------------------12-15-17-----15---------------------
g-------------13----------------13--------------12-11-10-------8-------------18-----17-----15----------
b------------------------------------12-----14-----------------------------------------------17-----16------
d----------------------------------------14------------------------------------------------------------------
a------------------------------------------------------------------------------------------------------------
e------------------------------------------------------------------------------------------------------------

e--15-14-13-11-12---------------------------15-14-13-11-12---20-20-20--------------
b-------------------------------13----13-15---------------------------------------------------
g-----------------------13-14----14-----------------------------------------------------------
d-------------------------------------------------------------------------------------------------
a-------------------------------------------------------------------------------------------------
e-------------------------------------------------------------------------------------------------

e--15-14-13-11-12-------------------------------------------
b-------------------------------13-----13-------16-15-13----
g-----------------------13-14-----14---------------------------
d----------------------------------------------------------------
a----------------------------------------------------------------
e----------------------------------------------------------------


e---------------------10-12------------------------------------10-12--------------------10-12-------------------
b----13-13-13-13----------13--------------13-13-13-13-------------13-13-13-13--------13----------------
g-----------------------------------14-12-------------------------------------------------------------14-12-------
d---------------------------------------------------------------------------------------------------------------------
a---------------------------------------------------------------------------------------------------------------------
e--------------------------------------------------------------------------------------------------------------------

e----12-12-12----12-15------
b----------------13-------------
g--------------------------------
d--------------------------------
a--------------------------------
e--------------------------------

repeat that a few times. i used to be able to do the rest but i forgot, ill have to try and remember how it goes. its a fantastic theme tune.

btw i didnt copy and paste that tab i did it espeically for you wink.gif

if you want zelda then say and i can tab that out for you i think.
Go to the top of the page
 
+Quote Post
DranoMax
post Jul 3 2006, 11:44 PM
Post #5


GMC:er
*

Group: Members
Posts: 20
Joined: 15-March 06
From: I'm not telling! But it is in the US. In Utah. Near Cedar City.
Member No.: 561



Sweet, I appreciate this!


--------------------
People make mistakes, that's why guns have bullets.
Go to the top of the page
 
+Quote Post
lezenko
post Jul 4 2006, 01:30 AM
Post #6


GMC:er
*

Group: Members
Posts: 36
Joined: 18-June 06
Member No.: 722



I can remember once this japanese guitarist playing super mario's and its the most insane thing ive ever heared!!!

The one i recently learned was from halo, steve vai did a track on there which i thought would be cool to learn sounds awesome too!
Go to the top of the page
 
+Quote Post
DanielM
post Jul 4 2006, 03:31 PM
Post #7


GMC:er
*

Group: Members
Posts: 95
Joined: 20-June 06
From: England
Member No.: 725



yeah i knew steve vai did the main theme for halo 2.

you don't happen to have a tab for it do you or be able to tab it out? as i can't find a decent tab for it at all.
Go to the top of the page
 
+Quote Post

Fast ReplyReply to this topicStart new topic
1 User(s) are reading this topic (1 Guests and 0 Anonymous Users)
0 Members:

 


RSS Lo-Fi Version Time is now: 20th January 2017 - 04:46 AM