Reply to this topicStart new topic
> Rock Solo In Bb Major, Correct me if I am wrong
mjsteps
post Jul 24 2008, 12:48 AM
Post #1


GMC:er
*

Group: Members
Posts: 65
Joined: 13-July 08
From: US
Member No.: 5.483



Carlos: I've been practicing your lesson as entitled above and by watching the video ( part 4) I noticed that what you play in the introduction video ( whole song) and what you have tabbed is different? ohmy.gif

Let me know if I am right or perhaps I am over looking something? blink.gif



|--------------------------|
|--------------18----------|
|-----------------17-15-14-|
|--------------------------|
|--------------------------|
|--------------------------|


|------------------------|---------------------|-------------------|
|------------------------|---------------------|-------------------|
|------------15----14- |--10--------8-----|--7----------------|
|--15~------------------|-------------------|-------------------|
|------------------------|---------------------|-------------------|
|------------------------|---------------------|-------------------|


but in the video of the entire song you are playing

same strings but as follows 15 15 14 10 8 7 5



Anyway love the lesson and the sound that your produce when playing. So much feeling comes through the music you can not help but be touched by it. biggrin.gif

Thanks for the inspiration

mjsteps
Go to the top of the page
 
+Quote Post
Carlos Carrillo
post Aug 9 2008, 02:59 AM
Post #2


Instructor
Group Icon

Group: GMC Instructor
Posts: 2.016
Joined: 8-February 08
From: Argentina
Member No.: 4.177



Hello mjsteps, first I sorry for being late in answer your cuestion!
The video 4 this one well, and I play the same thing in the principal song!! Do not worry for these things! You must generate your freestyle at the moment of studying! always for a perfect sound!!

Thank you for asking!! And sorry again! sad.gif
, sad.gif


--------------------
Go to the top of the page
 
+Quote Post

Reply to this topicStart new topic
1 User(s) are reading this topic (1 Guests and 0 Anonymous Users)
0 Members:

 


RSS Lo-Fi Version Time is now: 25th March 2017 - 03:03 AM