Reply to this topicStart new topic
> New Lessons "real Life" Help Scales?
Jesse
post Aug 21 2008, 07:16 PM
Post #1


GMC:er
*

Group: Members
Posts: 2.348
Joined: 5-July 08
From: Enschede/overijssel/Nederland
Member No.: 5.426



I just started my new theory lessons @ music school.. and I learned all five positions of the F chord.. I dont mean Fm. F min b but I mean F shape F chord C shape /D and A and G shape... and I need to learn all the five scales that go with them.. theyre just the same as the normal F major scale.. ionian.. but I don't really know how to start..


--------------------
Don't just play it. Feel it!
Go to the top of the page
 
+Quote Post
Matt23
post Aug 21 2008, 07:19 PM
Post #2


Accomplished Tone Master
Group Icon

Group: GMC Wiki:er
Posts: 1.745
Joined: 17-January 08
From: Scotland
Member No.: 3.866



I dont really understand the question.
Go to the top of the page
 
+Quote Post
Jesse
post Aug 21 2008, 07:22 PM
Post #3


GMC:er
*

Group: Members
Posts: 2.348
Joined: 5-July 08
From: Enschede/overijssel/Nederland
Member No.: 5.426



I learned the F chord in 5 positions. F shape "normal" C shape - G Shape - A shape and E shape. I need to learn the major scale.. so I need to know the notes in order... can you tell me hoe the notes go..? Just from A to G ? I mean.. ehm... hard to explain. the normal order form A to G


--------------------
Don't just play it. Feel it!
Go to the top of the page
 
+Quote Post
Matt23
post Aug 21 2008, 07:25 PM
Post #4


Accomplished Tone Master
Group Icon

Group: GMC Wiki:er
Posts: 1.745
Joined: 17-January 08
From: Scotland
Member No.: 3.866



The F major scale goes F-G-A-Bb-C-D-E-F. smile.gif Hope i understand the question rightly.
Go to the top of the page
 
+Quote Post
Jesse
post Aug 21 2008, 07:26 PM
Post #5


GMC:er
*

Group: Members
Posts: 2.348
Joined: 5-July 08
From: Enschede/overijssel/Nederland
Member No.: 5.426



Thank you sir:D How old are you? ive been playing for 3 years.. started rlly theory for bout 3 weeks lol


--------------------
Don't just play it. Feel it!
Go to the top of the page
 
+Quote Post
fatb0t
post Aug 21 2008, 07:39 PM
Post #6


GMC:er
*

Group: Members
Posts: 1.202
Joined: 25-November 07
Member No.: 3.373



I'm currently learning the CAGED system too...very interesting indeed.
Go to the top of the page
 
+Quote Post
Ivan Milenkovic
post Aug 21 2008, 10:08 PM
Post #7


Instructor
Group Icon

Group: GMC Instructor
Posts: 25.396
Joined: 20-November 07
From: Belgrade, Serbia
Member No.: 3.341



I'm currently developing a new series about modes that will (I hope) help you with that topic! Stay tuned smile.gif


--------------------
- Ivan's Video Chat Lesson Notes HERE
- Check out my GMC Profile and Lessons
- (Please subscribe to my) YouTube Official Channel
- Let's be connected through ! Facebook! :)
Go to the top of the page
 
+Quote Post
Gerardo Siere
post Aug 21 2008, 10:53 PM
Post #8


Instructor
Group Icon

Group: GMC Instructor
Posts: 2.424
Joined: 20-December 07
From: San Juan
Member No.: 3.558



Here is some help.

Pista 1
E shape (with open strings) Root on 6 string
Q S S S S S S S S S S S S
E||--1--------------------------------------------------------------------|
B||--1------------------------------------------------------------------1-|
G||--2------------------------------------------------------------0-2-3---|
D||--3------------------------------------------------------0-2-3---------|
A||--3------------------------------------------------0-1-3---------------|
E||--1--------------------------------------------1-3---------------------|


S S S S S S S S S S S S S S S S S S S S Q H
----0-1-3-1-0---------------------|---------------1--------|
--3-----------3-1-----------------|---------------1--------|
------------------3-2-0-----------|---------------2--------|
------------------------3-2-0-----|---------------3--------|
------------------------------3-1-|--0------------3--------|
----------------------------------|----3-1-0-1----1--------|


D shape root string 4 with finger 2
Q S S S S S S S S S S S S
--5---------------------------------------------------3-5-6-5-|
--6---------------------------------------------3-5-6---------|
--5-----------------------------------------3-5---------------|
--3-----------------------------------3-5-7-------------------|
--------------------------------------------------------------|
--------------------------------------------------------------|


S S S S S S S S S S S S S S S S W
--3-------------------------------|-------------------|
----6-5-3-------------------------|--6----------------|
----------5-3---------------------|--5----------------|
--------------7-5-3---------------|--3----------------|
--------------------7-5-3---------|-------------------|
--------------------------6-5-3-5-|--5----------------|


C shape root on 5 string with finger 4
Q S S S S S S S S S S S S
--5--------------------------------------------------------5-6-8-|
--6--------------------------------------------------5-6-8-------|
--5----------------------------------------------5-7-------------|
--7----------------------------------------5-7-8-----------------|
--8--------------------------------------8-----------------------|
-----------------------------------------------------------------|


S S S S S S S S S S S S S S S S S S S S Q H
--6-5-----------------------------|------------------------|
------8-6-5-----------------------|---------------6--------|
------------7-5-------------------|---------------5--------|
----------------8-7-5-------------|---------------7--------|
----------------------8-7-5-------|------5-7-8----8--------|
----------------------------8-6-5-|--6-8-------------------|


A shape root in string 5 finger one for chord
Q S S S S S S S S S S S S
----------------------------------------------------------------------------8-|
--10----------------------------------------------------------------8-10-11---|
--10---------------------------------------------------------7-9-10-----------|
--10--------------------------------------------------7-8-10------------------|
---8---------------------------------------------8-10-------------------------|
------------------------------------------------------------------------------|


but for scale root is played with finger 2
S S S S S S S S S S S S S S S S
--10-----------------------------------------8----------------------------------
-----------------------------------------------11-10-8--------------------------
-------------------------------------------------------10-9-7-------------------
--------------------------------------------------------------10-8-7------------
---------------------------------------------------------------------10-8-7-----
----------------------------------------------------------------------------10-8


S S S S Q H
--------------------------|
----------------10--------|
----------------10--------|
----------------10--------|
---------7-8-----8--------|
--6-8-10------------------|


G shape root on string 6 finger 4
Q S S S S S S S S S S S S
--13----------------------------------------------------------------------|
--10-------------------------------------------------------------10-11-13-|
--10-----------------------------------------------------9-10-12----------|
--10-----------------------------------------------10-12------------------|
--12--------------------------------------10-12-13------------------------|
--13----13----------------------------------------------------------------|


S S S S S S S S S S S S S S S S
--10-12-13-12-10---------------------------------|
-----------------13-11-10------------------------|
--------------------------12-10-9----------------|
----------------------------------12-10----------|
----------------------------------------13-12-10-|
-------------------------------------------------|


S S S S Q H
--------------------13--------|
--------------------10--------|
--------------------10--------|
--------------------10--------|
--------------------12--------|
--13-12-10-12-13----13--------|


E shape root on 6 string finger 2 for scale
Q S S S S S S S S S S
--13----------------------------------------------------------------------------
--13----------------------------------------------------------------------------
--14----------------------------------------------------------------------12-14-
--15-------------------------------------------------------------12-14-15-------
--15----------------------------------------------------12-13-15----------------
--13----13-------------------------------------------15-------------------------


finger 1 for chord
S S S S S S S S S S S S S S S S
--12-----------------13-15-13-12---------------------------------|
------------------------------------15-13----------------------------|
------------------------------------------14-12----------------------|
-----------------------------------------------15-14-12-------------|
--------------------------------------------------------15-13-12----|
-------------------------------------------------------------------15-|


S S E H.
-------------13------------||
-------------13------------||
-------------14------------||
-------------15------------||
-------------15------------||
13-12-13--13------------||



Duration Legend
---------------
W - whole
H - half
Q - quarter
E - 8th
S - 16th
T - 32nd
X - 64th
. - note dotted
|-n-| - n-tuplets


Tablature Legend
----------------
L - tied note
x - dead note
g - grace note
(n) - ghost note
> - accentuded note
NH - natural harmonic
AH - artificial harmonic
TH - tapped harmonic
SH - semi harmonic
PH - pitch harmonic
h - hammer on
p - pull off
b - bend
br - bendRelease
pb - preBend
pbr - preBendRelease
brb - bendReleaseBend
\n/ - tremolo bar dip
\n - tremolo bar dive
-/n - tremolo bar Release up
/n\ - tremolo bar inverted dip
/n - tremolo bar return
-\n - tremolo bar Release down
S - shift slide
s - legato slide
/ - slide into from below or out of upwards
\ - slide into from above or out of downwards
~ - vibrato
W - wide vibrato
tr - trill
TP - tremolo picking
T - tapping
S - slap
P - pop
< - fade in
^ - brush up
v - brush down


--------------------
Check out my video lessons!
Go to the top of the page
 
+Quote Post
Guitar1969
post Aug 21 2008, 10:54 PM
Post #9


GMC:er
*

Group: Members
Posts: 346
Joined: 30-October 06
From: Southern California
Member No.: 901



QUOTE (Jesse @ Aug 21 2008, 11:26 AM) *
Thank you sir:D How old are you? ive been playing for 3 years.. started rlly theory for bout 3 weeks lol



If your looking for major scale, the formula is :

T(root) w w h w w w h Which relates to the spacing between notes, so in F major its:

F G A A# C D E then back to F.

Andrew's Theory lesson subforum would be a great complement to the way your class is teaching it as Andrew has a way of explaining it in a simple way.

But be aware that theory take a long time to understand, and needs to be balanced with normal practicing of guitar(meaning you wouldn't want to just work on theory alone without having a guitar in your hand -At least that's my opinion - I've tried it)



--------------------
"Three Chords & The Truth . . ."
Go to the top of the page
 
+Quote Post
Jesse
post Aug 22 2008, 06:29 AM
Post #10


GMC:er
*

Group: Members
Posts: 2.348
Joined: 5-July 08
From: Enschede/overijssel/Nederland
Member No.: 5.426



:| gerardo man! THANKS!


--------------------
Don't just play it. Feel it!
Go to the top of the page
 
+Quote Post
Emir Hot
post Aug 22 2008, 09:30 AM
Post #11


Instructor
Group Icon

Group: GMC Instructor
Posts: 7.201
Joined: 14-July 08
From: London UK
Member No.: 5.490



Hi

This is from my book that I never finished writing. I hope you have it all here





--------------------
Check out my <a href="https://www.guitarmasterclass.net/instructor/Emir-Hot" target="_blank">Instructor profile</a>

www.emirhot.com
www.myspace.com/emirhotguitar
www.myspace.com/sevdahmetal
Go to the top of the page
 
+Quote Post
Muris Varajic
post Aug 22 2008, 09:33 AM
Post #12


Instructor
Group Icon

Group: GMC Instructor
Posts: 15.459
Joined: 22-June 07
From: Sarajevo,Bosnia
Member No.: 2.159



Cool diagrams and sheets bro,
I wish you'll finish the book one day!! smile.gif


--------------------
Youtube
MySpace
Website



Album "Let It Out" on
iTunes
and CD Baby

Check out my video lessons and instructor board!

The Pianist
tune is progress,check it out!

"ok.. it is great.. :P

have you myspace? Can i to personalize this for you guy?"
Go to the top of the page
 
+Quote Post
Emir Hot
post Aug 22 2008, 09:43 AM
Post #13


Instructor
Group Icon

Group: GMC Instructor
Posts: 7.201
Joined: 14-July 08
From: London UK
Member No.: 5.490



Thank you. I realized there are milions of books like this so I stopped. It was supposed to be written in Bosnian but they seem to have 5 guitarists in the whole country smile.gif


--------------------
Check out my <a href="https://www.guitarmasterclass.net/instructor/Emir-Hot" target="_blank">Instructor profile</a>

www.emirhot.com
www.myspace.com/emirhotguitar
www.myspace.com/sevdahmetal
Go to the top of the page
 
+Quote Post
Muris Varajic
post Aug 22 2008, 10:23 AM
Post #14


Instructor
Group Icon

Group: GMC Instructor
Posts: 15.459
Joined: 22-June 07
From: Sarajevo,Bosnia
Member No.: 2.159



QUOTE (Emir Hot @ Aug 22 2008, 10:43 AM) *
Thank you. I realized there are milions of books like this so I stopped. It was supposed to be written in Bosnian but they seem to have 5 guitarists in the whole country smile.gif


laugh.gif laugh.gif laugh.gif


--------------------
Youtube
MySpace
Website



Album "Let It Out" on
iTunes
and CD Baby

Check out my video lessons and instructor board!

The Pianist
tune is progress,check it out!

"ok.. it is great.. :P

have you myspace? Can i to personalize this for you guy?"
Go to the top of the page
 
+Quote Post
Jesse
post Aug 22 2008, 10:59 AM
Post #15


GMC:er
*

Group: Members
Posts: 2.348
Joined: 5-July 08
From: Enschede/overijssel/Nederland
Member No.: 5.426



QUOTE (Emir Hot @ Aug 22 2008, 10:43 AM) *
Thank you. I realized there are milions of books like this so I stopped. It was supposed to be written in Bosnian but they seem to have 5 guitarists in the whole country smile.gif
...... i cracked laugh.gif laugh.gif laugh.gif


--------------------
Don't just play it. Feel it!
Go to the top of the page
 
+Quote Post
Muris Varajic
post Aug 22 2008, 11:01 AM
Post #16


Instructor
Group Icon

Group: GMC Instructor
Posts: 15.459
Joined: 22-June 07
From: Sarajevo,Bosnia
Member No.: 2.159



QUOTE (Jesse @ Aug 22 2008, 11:59 AM) *
[/b]...... i cracked laugh.gif laugh.gif laugh.gif


Tell me about it laugh.gif laugh.gif


--------------------
Youtube
MySpace
Website



Album "Let It Out" on
iTunes
and CD Baby

Check out my video lessons and instructor board!

The Pianist
tune is progress,check it out!

"ok.. it is great.. :P

have you myspace? Can i to personalize this for you guy?"
Go to the top of the page
 
+Quote Post
kaznie_NL
post Aug 22 2008, 11:21 AM
Post #17


Experienced Tone Seeker
*

Group: Passive
Posts: 4.809
Joined: 8-December 07
From: Hedel, Netherlands
Member No.: 3.471



QUOTE (Emir Hot @ Aug 22 2008, 10:30 AM) *
Hi

This is from my book that I never finished writing. I hope you have it all here


I hope you'll finish it, even if it is for the five players tongue.gif Looks cool!


--------------------
My YouTube Channel Here

My Rec Takes Here


--- GEAR ---
Ibanez SA08LTD2 BAR
Vox AD50VT
Pod Farm
Line 6 Pod Studio GX
El Cheapo Strat
Dunlop Slide
Korg Toneworks AX5G
Go to the top of the page
 
+Quote Post
Ivan Milenkovic
post Aug 22 2008, 12:24 PM
Post #18


Instructor
Group Icon

Group: GMC Instructor
Posts: 25.396
Joined: 20-November 07
From: Belgrade, Serbia
Member No.: 3.341



Well Muris doesn't need it - then it's 4 players I guess laugh.gif


--------------------
- Ivan's Video Chat Lesson Notes HERE
- Check out my GMC Profile and Lessons
- (Please subscribe to my) YouTube Official Channel
- Let's be connected through ! Facebook! :)
Go to the top of the page
 
+Quote Post

Fast ReplyReply to this topicStart new topic
1 User(s) are reading this topic (1 Guests and 0 Anonymous Users)
0 Members:

 


RSS Lo-Fi Version Time is now: 21st July 2017 - 03:46 PM