Reply to this topicStart new topic
> Need some advice/tips
poida
post Sep 26 2006, 02:06 AM
Post #1


GMC:er
*

Group: Members
Posts: 3
Joined: 5-September 06
Member No.: 832



Hi there,

I've been trying to nail this run in the solo from "Domination" by Pantera for about the last 2 weeks and I'm getting nowhere:

1 ------------------------------------|------------------------------------|
2 ------------------------------------|------------------------------------|
3 ------------------------------------|------------------------12-15------|
4 ----------------------12-15--------|-------------12-15-18-------18---|
5 -----------12-15-18--------18----|--12-15-18------------------------|
6 12-15-18--------------------------|------------------------------------|

1 ------------------------------------|------------------------------------|
2 -----------------------12-15-18---|-----------12-15-18-15-12-15---|
3 ------------12-15-18--------------|12-15-18-------------------------|
4 12-15-18--------------------------|------------------------------------|
5 ------------------------------------|------------------------------------|
6 ------------------------------------|------------------------------------|


1 12-15-18-15-12-15-12-15-19-15-12-15----------|
2 -----------------------------------|-------------------|
3 -----------------------------------|-------------------|
4 -----------------------------------|-------------------|
5 -----------------------------------|------------------|
6 -----------------------------------|------------------|

Sorry, its not easy to get the tab to line up properly here.

For those who don't know the song https://www.youtube.com/watch?v=0boqnpueDFE

Solo is at about 3mins 15secs and the run I'm referring to is at about 3:20

Anyway, I'm finding it hard to get this run to sound anything like the recording. After watching the video posted above, I beleive that this is actually done using hammer-ons, so I've tried that but it just sounds very noisey. So I'm wondering if anyone here has attempted this solo and could offer some advice? Otherwise I'll just keep trying I spose. The rest of the solo I can play, though I haven't attempted the big run at the end yet :shock

Thanks heaps for your help.
Peter
Go to the top of the page
 
+Quote Post
Kristofer Dahl
post Sep 27 2006, 09:33 AM
Post #2


GMC Founder & Rocker
Group Icon

Group: GMC Instructor
Posts: 15.180
Joined: 15-August 05
From: Stockholm, Sweden
Member No.: 2



The first four bars are probably done using hammer-ons, tbefore attempting to play it you should go through some three-note-per string legato exercices. We don't have to much of that here [yet]. But a google search should give you some info!

/Kris
Go to the top of the page
 
+Quote Post
poida
post Sep 28 2006, 04:15 AM
Post #3


GMC:er
*

Group: Members
Posts: 3
Joined: 5-September 06
Member No.: 832



Thanks Kris,

I think you're right. I'll have to keep practicing to get it to sound clean.

Cheers
Go to the top of the page
 
+Quote Post

Fast ReplyReply to this topicStart new topic
1 User(s) are reading this topic (1 Guests and 0 Anonymous Users)
0 Members:

 


RSS Lo-Fi Version Time is now: 24th May 2017 - 07:06 PM