Reply to this topicStart new topic
> Problem With Gary Moore Intermediate/advanced, Some notes missing in notation ?
Bluefinger
post Sep 15 2008, 06:08 PM
Post #1


GMC:er
*

Group: Members
Posts: 25
Joined: 22-January 08
From: Germany
Member No.: 3.943



Hi Ivan,

I'm currently practising your Gary Moore Intermediate/Advanced lesson. A great piece to learn from. Thanks for that. However I'm having problems with part 4. Maybe I'm completely wrong and I miss something but I have the impression that you play much more notes in the video than I can find in the notation.


Part 4:

|--3--| |--3--| |--3--| |--3-| |-3-| 3
T T T T T T T T T T T T T T T T
---------------------------------------------
---------------10----------------------------
--9p-7----7h-9----9p-7-----------------------
-------10--------------10p-7s-5--------------
--------------------------------
7p-5---5h-7p -
-------------------------------------
8 -------


|-3-| 3
T T T E E
---------------|
---------------|
---------------|
---------------|
--
5 ------------|
----
8-5-L ~-----|


The black part is still correct, but I have highlighted in red where my problems start. Maybe you can check. Thanks a lot for your help.

BlueFinger
Go to the top of the page
 
+Quote Post
Ivan Milenkovic
post Sep 16 2008, 06:51 PM
Post #2


Instructor
Group Icon

Group: GMC Instructor
Posts: 25.396
Joined: 20-November 07
From: Belgrade, Serbia
Member No.: 3.341



QUOTE (Bluefinger @ Sep 15 2008, 07:08 PM) *
Hi Ivan,

I'm currently practising your Gary Moore Intermediate/Advanced lesson. A great piece to learn from. Thanks for that. However I'm having problems with part 4. Maybe I'm completely wrong and I miss something but I have the impression that you play much more notes in the video than I can find in the notation.


Part 4:

|--3--| |--3--| |--3--| |--3-| |-3-| 3
T T T T T T T T T T T T T T T T
---------------------------------------------
---------------10----------------------------
--9p-7----7h-9----9p-7-----------------------
-------10--------------10p-7s-5--------------
--------------------------------
7p-5---5h-7p -
-------------------------------------
8 -------


|-3-| 3
T T T E E
---------------|
---------------|
---------------|
---------------|
--
5 ------------|
----
8-5-L ~-----|


The black part is still correct, but I have highlighted in red where my problems start. Maybe you can check. Thanks a lot for your help.

BlueFinger



Hey man, I'm glad you like the lesson and here's how it should sound. You spot on about those extra few notes, and here they are marked with green. THere's a video as well where I show this correct tab played, where while playing those green notes there is a green "!" symbol.


Part 4:

|--3--| |--3--| |--3--| |--3-| |-3-| 3
T T T T T T T T T T T T T T T T
---------------------------------------------
---------------10----------------------------
--9p-7----7h-9----9p-7-----------------------
-------10--------------10p-7s- 5h7p5----5 ----------
------------------------------------- 7
----7p-5---5h-7p -
----------------------------------------------
8 -------


|-3-| 3
T T T E E
---------------|
---------------|
---------------|
---------------|
--
5 ------------|
----
8-5-L ~-----|

I hope this helps mate, and sorry about the mistake, you were spot on noticing it, well done. smile.gif

If there's anything else, feel free to ask, I'll be glad to help. Cheers smile.gif

Attached File(s)
Attached File  Untitled.avi ( 9.17MB ) Number of downloads: 102
 


--------------------
- Ivan's Video Chat Lesson Notes HERE
- Check out my GMC Profile and Lessons
- (Please subscribe to my) YouTube Official Channel
- Let's be connected through ! Facebook! :)
Go to the top of the page
 
+Quote Post
Bluefinger
post Sep 17 2008, 05:49 PM
Post #3


GMC:er
*

Group: Members
Posts: 25
Joined: 22-January 08
From: Germany
Member No.: 3.943



QUOTE (Ivan Milenkovic @ Sep 16 2008, 06:51 PM) *
Hey man, I'm glad you like the lesson and here's how it should sound. You spot on about those extra few notes, and here they are marked with green. THere's a video as well where I show this correct tab played, where while playing those green notes there is a green "!" symbol.


Part 4:

|--3--| |--3--| |--3--| |--3-| |-3-| 3
T T T T T T T T T T T T T T T T
---------------------------------------------
---------------10----------------------------
--9p-7----7h-9----9p-7-----------------------
-------10--------------10p-7s- 5h7p5----5 ----------
------------------------------------- 7
----7p-5---5h-7p -
----------------------------------------------
8 -------


|-3-| 3
T T T E E
---------------|
---------------|
---------------|
---------------|
--
5 ------------|
----
8-5-L ~-----|

I hope this helps mate, and sorry about the mistake, you were spot on noticing it, well done. smile.gif

If there's anything else, feel free to ask, I'll be glad to help. Cheers smile.gif


Hey this solved it for me. Sounds good now. And also a fantastic view in the attached video. Thanks a lot and hopefully you'll provide more lessons in this style.

Bluefinger
Go to the top of the page
 
+Quote Post
Ivan Milenkovic
post Sep 17 2008, 06:53 PM
Post #4


Instructor
Group Icon

Group: GMC Instructor
Posts: 25.396
Joined: 20-November 07
From: Belgrade, Serbia
Member No.: 3.341



Great, I'm glad we solved that one! smile.gif

I love playing blues stuff, I'll do some similar lessons in the near future. Cheers


--------------------
- Ivan's Video Chat Lesson Notes HERE
- Check out my GMC Profile and Lessons
- (Please subscribe to my) YouTube Official Channel
- Let's be connected through ! Facebook! :)
Go to the top of the page
 
+Quote Post

Fast ReplyReply to this topicStart new topic
1 User(s) are reading this topic (1 Guests and 0 Anonymous Users)
0 Members:

 


RSS Lo-Fi Version Time is now: 31st March 2017 - 01:45 AM