Reply to this topicStart new topic
> Nothing Else Matters Guitar Solo.......
psychoguitarist_...
post Oct 7 2006, 02:41 PM
Post #1


GMC:er
*

Group: Members
Posts: 76
Joined: 10-August 06
From: Bangalore, Karnataka, India, Asia (in case u don't know where India is)
Member No.: 799



Can anyone give me an ACCURATE guitar tab for the Nothing Else Matters guitar solo played by James Hetfield???? I Checked on many of the guitar tab sites includin UG but none of them seem to be accurate :shock So can anyone help me????

Thanx


--------------------
R.I.P (RoCk In PeAcE) \m/

IPB Image
Go to the top of the page
 
+Quote Post
Red Tie
post Oct 7 2006, 03:15 PM
Post #2


GMC:er
*

Group: Members
Posts: 79
Joined: 24-September 06
Member No.: 853



Here you go, feel free to ask anything 'bout it.

e|---------------------------------------------------------------------|
B|-15b1r15----------------------------------------------------------|
G|-14b1r14-14b1r14-12----14-12-|-11h12p11--11---12-14-12-|
D|--------------------------------------14--12-14-------------------|
A|---------------------------------------------------------------------|
E|---------------------------------------------------------------------|

e|-------12------12--------------------------------------------------|
B|-----12------12--15p12--12---------------14-14-13-------------|
G|-14b1----14b1---------15--15-14-|-12b1r12--14-14-13-12~-|
D|--------------------------------------14---------------------------|
A|--------------------------------------------------------------------|
E|--------------------------------------------------------------------|

e|15--14----15--14--15-15-/-17-17-|-15--14h15p14/12---15-14--|
B|---------12---------------------------------12-------12--------------|
G|------------------------------------------------------------12-14-12-|
D|-----------------------------------------------------------------------|
A|-----------------------------------------------------------------------|
E|-----------------------------------------------------------------------|

e|----------------------12---------------------------------|
B|-15b1--------------12----15-15b1-r15p12-|-15b1~-|
G|-14b1p12----12-14b1---------------------------------|
D|---------14---------------------------------------------|
A|---------------------------------------------------------|
E|---------------------------------------------------------|

e|-------------------------------------------|
B|-12h15h12---------[12]/7-|-/5h7p5-|
G|------------------------------------------|
D|------------------------------------------|
A|------------------------------------------|
E|------------------------------------------|
Go to the top of the page
 
+Quote Post
psychoguitarist_...
post Oct 9 2006, 01:59 PM
Post #3


GMC:er
*

Group: Members
Posts: 76
Joined: 10-August 06
From: Bangalore, Karnataka, India, Asia (in case u don't know where India is)
Member No.: 799



RED TIE................ I SALUTE YOU!!!!! THANX A LOT!!!!!!! :> :> :>
I'VE BEEN WAITIN FOR THIS FOREVER!!!!!!!!!!!!! THANX A LOT!!!!!!! biggrin.gif biggrin.gif


--------------------
R.I.P (RoCk In PeAcE) \m/

IPB Image
Go to the top of the page
 
+Quote Post
Red Tie
post Oct 9 2006, 04:19 PM
Post #4


GMC:er
*

Group: Members
Posts: 79
Joined: 24-September 06
Member No.: 853



No problemo!
It's a great solo, have fun biggrin.gif
Go to the top of the page
 
+Quote Post

Fast ReplyReply to this topicStart new topic
1 User(s) are reading this topic (1 Guests and 0 Anonymous Users)
0 Members:

 


RSS Lo-Fi Version Time is now: 23rd March 2017 - 07:22 PM