Reply to this topicStart new topic
> Descending (speed)picking problem...
RIP Dime
post Nov 1 2006, 05:57 AM
Post #1


GMC:er
*

Group: Members
Posts: 1.063
Joined: 2-October 06
From: Hawaii
Member No.: 862



I mess up alot when doing fast descending picking exercises. Like this:

e--------------------------------------------------------------------------
B--------------------------------------------------------------------------
G-----7--5--4-------------------------------------------------------------
D---------------7--5--4---------------------------------------------------
A-------------------------7--5--4-----------------------------------------
E-----------------------------------7--5--4-------------------------------

My picking hand stutters when I change strings sad.gif I have no problem doing ascending licks, but descending licks are difficult for me. I use constant alternate picking. I've tried starting the descending pattern with an up-stroke instead of a down-stroke, and that helped a little. Any other advice?


--------------------
IPB Image
Go to the top of the page
 
+Quote Post
Kristofer Dahl
post Nov 1 2006, 08:34 AM
Post #2


GMC Founder & Rocker
Group Icon

Group: GMC Instructor
Posts: 15.087
Joined: 15-August 05
From: Stockholm, Sweden
Member No.: 2



Yes - I still struggle with that... sad.gif

What works for me is practicing only this part

e--------------------------------------------------------------------------
B--------------------------------------------------------------------------
G-----7--5--4-------------------------------------------------------------
D---------------7--5--4---------------------------------------------------
A---------------------------------------------------------------------------
E---------------------------------------------------------------------------

over and over - when I have done that for a while I am ready to tackle this:

e--------------------------------------------------------------------------
B--------------------------------------------------------------------------
G-----7--5--4-------------------------------------------------------------
D---------------7--5--4---------------------------------------------------
A-------------------------7--5--4-----------------------------------------
E-----------------------------------7--5--4-------------------------------

--Kris


--------------------
Go to the top of the page
 
+Quote Post
RIP Dime
post Nov 1 2006, 09:45 AM
Post #3


GMC:er
*

Group: Members
Posts: 1.063
Joined: 2-October 06
From: Hawaii
Member No.: 862



Well, I'm glad it's not only me smile.gif
Thanks, I'll just put it to a metronome, and see if I can get it down.


--------------------
IPB Image
Go to the top of the page
 
+Quote Post
Shred Cat
post Nov 1 2006, 11:56 PM
Post #4


GMC:er
*

Group: Members
Posts: 31
Joined: 2-October 06
Member No.: 863



Don't forget to start the exercise with a down stroke, then repeat it with an upstroke. So you can get really proficient with picking.
Go to the top of the page
 
+Quote Post
Kristofer Dahl
post Nov 2 2006, 08:10 AM
Post #5


GMC Founder & Rocker
Group Icon

Group: GMC Instructor
Posts: 15.087
Joined: 15-August 05
From: Stockholm, Sweden
Member No.: 2



QUOTE (Shred Cat @ Nov 2 2006, 01:56 AM) *
Don't forget to start the exercise with a down stroke, then repeat it with an upstroke. So you can get really proficient with picking.


I am not with you - can you explain? smile.gif


--------------------
Go to the top of the page
 
+Quote Post
Cheep
post Nov 2 2006, 09:04 AM
Post #6


GMC:er
*

Group: Members
Posts: 14
Joined: 9-October 06
Member No.: 870



I think he said that you should learn the riff doing at first a downstroke, when you're starting it. And then, when you feel comfortable, learn again the riff, but starting it with an upstroke so you'll know how to play it starting with a down or an upstroke, and that's pretty cool.

This post has been edited by Cheep: Nov 2 2006, 09:04 AM
Go to the top of the page
 
+Quote Post
Kristofer Dahl
post Nov 2 2006, 10:36 AM
Post #7


GMC Founder & Rocker
Group Icon

Group: GMC Instructor
Posts: 15.087
Joined: 15-August 05
From: Stockholm, Sweden
Member No.: 2



QUOTE (Cheep @ Nov 2 2006, 11:04 AM) *
I think he said that you should learn the riff doing at first a downstroke, when you're starting it. And then, when you feel comfortable, learn again the riff, but starting it with an upstroke so you'll know how to play it starting with a down or an upstroke, and that's pretty cool.


Aha! Yes that's a very good idea - glad it was pointed out. smile.gif


--------------------
Go to the top of the page
 
+Quote Post
RIP Dime
post Nov 2 2006, 11:04 AM
Post #8


GMC:er
*

Group: Members
Posts: 1.063
Joined: 2-October 06
From: Hawaii
Member No.: 862



Makes sense, if you practice starting with upstrokes and downstrokes you can go to a descending lick after playing pretty much anything.


--------------------
IPB Image
Go to the top of the page
 
+Quote Post
Nick
post Nov 5 2006, 02:59 PM
Post #9


GMC:er
*

Group: Members
Posts: 23
Joined: 23-October 06
From: Washington DC USA
Member No.: 891



Kris or RIP or anyone with more speed than I have, (that means everyone)

I can get pretty fast moving up the strings, but descending scales have me at a loss.

I think I just identified my problem writing this post. biggrin.gif

When you ascend the pentatonic using hammer-ons your index plays and the next note is the hammer so your index is free to move. It's almost like drumming your fingers on the table top.

When you descend with pull offs, your index is the last one on the string, so it's like reversing drumming your fingers. If you just try to do that on the table it's enough to make you want to gnaw your own arm off.

So any helpful hints on getting the reverse/descending movement under control?

Does anyone barre the bottom of the box where appropriate and use the pinky and ring for the pull offs?

P.S. I just noticed this, but if you put both hands on the table and drum your fingers naturally, the right hand goes inward from pinky to index, right to left. The left hand has the same finger order pinky to index, but the opposite direction left to right. I wonder why that is? That might be a good "I don't have a guitar with me" exercise, drumming your left hand fingers right to left.

This post has been edited by Nick: Nov 5 2006, 03:04 PM
Go to the top of the page
 
+Quote Post

Fast ReplyReply to this topicStart new topic
1 User(s) are reading this topic (1 Guests and 0 Anonymous Users)
0 Members:

 


RSS Lo-Fi Version Time is now: 25th March 2017 - 10:57 PM