Reply to this topicStart new topic
> My first post, first solo attempt
Focus
post Nov 7 2006, 12:22 AM
Post #1


GMC:er
*

Group: Members
Posts: 2
Joined: 29-October 06
From: The Hague Holland
Member No.: 900



After 2 weeks of study my first post here, the first part of the solo from Child in time (Deep Purple). The solo goed over 3 boxes in A minor.Attached File  deep.wav ( 4.95MB ) Number of downloads: 376

Speed, backtrack and the fast have to come but it's a start.
Good luck all!

\1
~~~
E E S S S S Q Q +W E E H.
|-----------------|------------|-------------------------|
|-----------------|------------|-------------------------|
|-----------------|------------|-14b16-14b16-14b16=======|
|-7---7-7-7-7-7-7-|-(7)--------|-------------------------|
|-7---7-7-7-7-7-7-|-(7)--------|-------------------------|
|-----------------|------------|-------------------------|


+Q E E S E S S S E +H +S S S S S S S S
|-------------------------------------|------------------------12-11-10-8-10----|
|--------13-----15b17-15-13-12--------|------------------15b17------------------|
|-(14)r------------------------14b16==|=(14)----(14)r-14------------------------|
|-------------------------------------|-----------------------------------------|
|-------------------------------------|-----------------------------------------|
|-------------------------------------|-----------------------------------------|


~~~
|-3--|
S E. T T T E. T T E S T T S S S
|-10b12-10--8h10p8p7---------------------|
|---------------------10p8p7-5-----------|
|------------------------------8p7p5---5-|
|------------------------------------7---|
|----------------------------------------|
|----------------------------------------|


~~~~~ ~~~~~
+H. S S S S S E. +Q S E S S E.
|------------------|-------------------5--------|
|------------------|-----------------5---8b10===|
|-(5)--------------|-----------0-7b9------------|
|----------7-5-----|---7--(7)-------------------|
|--------------7-5-|-7--------------------------|
|------------------|----------------------------|


~~~~
|-3--| |-3-|
+H S S S S S T T T S S S S T T T S +Q S E. T T S S S
|--------------7-8-10-8h10p8p7----|-7-8-10p9p7--------------------------|
|-(8)r------10-----------------10-|------------10-(10)--10-8------------|
|---------------------------------|---------------------------9s7p5-7-0-|
|---------------------------------|-------------------------------------|
|---------------------------------|-------------------------------------|
|---------------------------------|-------------------------------------|


Q=180(8=s8)
H +H W +W
|------------------|---------------|---------|
|------------------|---------------|---------|
|-2------(2)/------|-14------------|-(14)----|
|------------------|---------------|---------|
|------------------|---------------|---------|
|------------------|---------------|---------|
Go to the top of the page
 
+Quote Post
PickNGrin
post Nov 14 2006, 02:44 PM
Post #2


GMC:er
*

Group: Members
Posts: 195
Joined: 10-October 06
Member No.: 873



nice job! good tone and clean recording! Bet it sounds better over a backing track
Go to the top of the page
 
+Quote Post

Reply to this topicStart new topic
1 User(s) are reading this topic (1 Guests and 0 Anonymous Users)
0 Members:

 


RSS Lo-Fi Version Time is now: 22nd July 2017 - 09:53 AM