Reply to this topicStart new topic
> Building Speed Using A Metronome Issue
fatb0t
post Nov 28 2008, 02:50 AM
Post #1


GMC:er
*

Group: Members
Posts: 1.202
Joined: 25-November 07
Member No.: 3.373



Like all of us guitarists we want the use of speed when necessary... I've been practicing with a metronome daily my major scale in every key but I'm having one particular issue...

Say we have a run like this D Harmonic minor run:

--------------------------------------------------------------------------|
-----------------------------------------------------------------14-15-17-|
-----------------------------------------------12-14-15-14-15-17----------|
-----------------------------11-12-14-12-14-15----------------------------|
-----------10-12-13-12-13-15----------------------------------------------|
--10-12-13----------------------------------------------------------------|


-----------15-17-18-17-15-------------------------------------|
--15-17-18----------------18-17-15-14-17-15-14----------------|
-----------------------------------------------15-14-12-14----|
--------------------------------------------------------------|
--------------------------------------------------------------|
--------------------------------------------------------------|


See the 15 17 18 17 15 on the high E string?
When practicing 3 notes per click with my metronome this part throws me offffffffff every time... Something is wrong and I can't figure out what it is... Am I supposed to go 15 17 18 18 17 15 so I get 3 notes per click? When I repeat 18 it sounds off and not flowing...
Whenever I go back down on my scale shred run I get messed up and sound amateur.. Any advice would be greatly appreciated...
Go to the top of the page
 
+Quote Post
Ramiro Delforte
post Nov 28 2008, 03:16 AM
Post #2


Instructor
Group Icon

Group: GMC Instructor
Posts: 2.279
Joined: 4-August 08
From: Argentina, Buenos Aires
Member No.: 5.625



here I attach some ways to do the run
Attached File(s)
Attached File  Harmonic_minor_run.gp5 ( 2.99K ) Number of downloads: 137
 


--------------------
Check out my Instructor Profile and Board

LIVE VIDEO CHATS EVERY MONDAY AROUND 22PM (GMC HOUR)
Go to the top of the page
 
+Quote Post

Fast ReplyReply to this topicStart new topic
1 User(s) are reading this topic (1 Guests and 0 Anonymous Users)
0 Members:

 


RSS Lo-Fi Version Time is now: 23rd May 2017 - 09:55 PM