Reply to this topicStart new topic
> Merry Christmas Lesson, The 3rd video
CathShadow
post Nov 30 2008, 08:24 PM
Post #1


Learning Apprentice Player
*

Group: Members
Posts: 383
Joined: 5-August 08
From: South Africa
Member No.: 5.638



https://www.guitarmasterclass.net/rhythm-gu...erry-christmas/

Hi, I'm trying to learn this lesson, now on the 3rd video ivan has said to improvise the
Bm Em A F#dim D G chords...

so I tried some... but i dunno which are better.. or WHAT on earth they actually are?

can anyone help?


Original:

Bm Em A F#dim D G

|--2----------------|--0--------------|-----------------|------------------|
|--3----------------|--0--------------|-----------------|--8---------------|
|--4----4--5--4--2--|--0--------------|--2----5----7----|--7--------7------|
|--4----------------|--2----2----2----|--2----4----7----|--9--------7h--9--|
|--2----------------|--2--------------|-----------------|------------------|
|-------------------|--0--------------|-----------------|------------------|

I Tried:

Bm Em A F#dim D G

|--2----------------|--0--------------|-------5---------|------------------|
|--3----------------|--0--------------|--2----5----7----|--8---------------|
|--4----4--5--4--2--|--0--------------|--2----5----7----|--7--------7------|
|--4----------------|--2----2----2----|--2----4----7----|--9--------7h--9--|
|--2----------------|--2--------------|-----------------|------------------|
|-------------------|--0--------------|-----------------|------------------|


|--2----------------|--0--------------|-------5---------|------------------|
|--3----------------|--0--------------|-------5----7----|--8---------------|
|--4----4--5--4--2--|--0--------------|--2----5----7----|--7--------7------|
|--4----------------|--2----2----2----|--2----5----7----|--9--------7h--9--|
|--2----------------|--2--------------|-----------------|------------------|
|-------------------|--0--------------|-----------------|------------------|


This post has been edited by CathShadow: Nov 30 2008, 08:27 PM


--------------------

Go to the top of the page
 
+Quote Post
Ivan Milenkovic
post Dec 1 2008, 12:23 AM
Post #2


Instructor
Group Icon

Group: GMC Instructor
Posts: 25.396
Joined: 20-November 07
From: Belgrade, Serbia
Member No.: 3.341



That sounds pretty cool mate, I just tried it. Do you need help with anything specific there?


--------------------
- Ivan's Video Chat Lesson Notes HERE
- Check out my GMC Profile and Lessons
- (Please subscribe to my) YouTube Official Channel
- Let's be connected through ! Facebook! :)
Go to the top of the page
 
+Quote Post
CathShadow
post Dec 1 2008, 06:20 AM
Post #3


Learning Apprentice Player
*

Group: Members
Posts: 383
Joined: 5-August 08
From: South Africa
Member No.: 5.638



Ah cool thanks biggrin.gif...


well I actually wanted to know, do you know what those are called that i played?

and any other ideas I can play with?

btw the lesson rocks!


--------------------

Go to the top of the page
 
+Quote Post

Fast ReplyReply to this topicStart new topic
1 User(s) are reading this topic (1 Guests and 0 Anonymous Users)
0 Members:

 


RSS Lo-Fi Version Time is now: 17th October 2017 - 10:57 AM