Reply to this topicStart new topic
> stevie-ray style
Esox Lucius
post Dec 2 2006, 06:03 PM
Post #1


GMC:er
*

Group: Members
Posts: 28
Joined: 6-October 06
From: Linköping, Sweden
Member No.: 866



Hi guitarpeople smile.gif

As I am leaving my hometown (and regular axess to internet) and heading for the winterland of Idre, Sweden.
I wanted to post a soundclip of me playing.

This is 12 bar blues in Eb - Stevie-Ray style. Note that I also managed to record a walking bass biggrin.gif
Guitar and bass is tuned 1 step down to Eb

I used a Fender Stratocaster Lite Ash edition with Staggered Seymor Duncan mics through a Peavey Classic 30 and the bassguitar is a simple Yamaha RBX260 smile.gif

I hope someone enjoys this rocky 12 bar blues smile.gif

BTW. I know it's not 100% tight tongue.gif
Attached File(s)
Attached File  steviestyle_12_bar_blues_E_IV.MP3 ( 807.53K ) Number of downloads: 480
 


--------------------
Rock n' Roll Ain't Noise Pollution :)

Keep on rockin' in the free world!!!
Go to the top of the page
 
+Quote Post
fretdancer
post Dec 2 2006, 06:08 PM
Post #2


GMC:er
*

Group: Members
Posts: 328
Joined: 9-February 06
From: Nottingham UK
Member No.: 370



Hey thats great
very impressive.

Nice playing and good timing.

well done and thanks for sharing.


--------------------
its not easy
banging your head against some mad buggers wall.
Variax 300. Pod XTL & Crate amp
some of my recordings are here: http://homepage.ntlworld.com/petergb/
Go to the top of the page
 
+Quote Post
Esox Lucius
post Dec 2 2006, 06:29 PM
Post #3


GMC:er
*

Group: Members
Posts: 28
Joined: 6-October 06
From: Linköping, Sweden
Member No.: 866



QUOTE (fretdancer @ Dec 2 2006, 06:08 PM) *
Hey thats great
very impressive.

Nice playing and good timing.

well done and thanks for sharing.



Thank U biggrin.gif Just some standard blues licks with an odd note or two...


--------------------
Rock n' Roll Ain't Noise Pollution :)

Keep on rockin' in the free world!!!
Go to the top of the page
 
+Quote Post
Kristofer Dahl
post Dec 2 2006, 09:33 PM
Post #4


GMC Founder & Rocker
Group Icon

Group: GMC Instructor
Posts: 15.089
Joined: 15-August 05
From: Stockholm, Sweden
Member No.: 2



Great! here is what I like about it:

Good tone, cool licks and technique and most of all sounds like you have had some impressive progress since our live lessons! blink.gif biggrin.gif

Now as you pointed out - something strange happens when the walking bass comes in. I am a bit confused on exactly what is going wrong - but I suspect the solo guitare is fairly tight with the drums - but the bass is going way out.

I would really like to hear it again with no bass or a different groove.

Kris smile.gif


--------------------
Go to the top of the page
 
+Quote Post
Esox Lucius
post Dec 3 2006, 12:54 AM
Post #5


GMC:er
*

Group: Members
Posts: 28
Joined: 6-October 06
From: Linköping, Sweden
Member No.: 866



QUOTE (Kristofer Dahl @ Dec 2 2006, 09:33 PM) *
Great! here is what I like about it:

Good tone, cool licks and technique and most of all sounds like you have had some impressive progress since our live lessons! blink.gif biggrin.gif

Now as you pointed out - something strange happens when the walking bass comes in. I am a bit confused on exactly what is going wrong - but I suspect the solo guitare is fairly tight with the drums - but the bass is going way out.

I would really like to hear it again with no bass or a different groove.

Kris smile.gif



Thanx biggrin.gif I mostly use pentatonic scale when improvising, I have learned minor scale. But as I'm mostly play rock n roll and blues for now the penta scale suits me perfect biggrin.gif And as u shown in your lesson there are lots and lots of cool licks and phrases for me to learn. BTW I do recognise a whole bunch of licks biggrin.gif


I'll see what I can come up with, just thought that walking bass was cool thing to through in, maybe need to work out the timing and feel better wink.gif


--------------------
Rock n' Roll Ain't Noise Pollution :)

Keep on rockin' in the free world!!!
Go to the top of the page
 
+Quote Post
PickNGrin
post Dec 3 2006, 03:58 PM
Post #6


GMC:er
*

Group: Members
Posts: 195
Joined: 10-October 06
Member No.: 873



Hey, nice job!
Go to the top of the page
 
+Quote Post
Esox Lucius
post Dec 3 2006, 09:13 PM
Post #7


GMC:er
*

Group: Members
Posts: 28
Joined: 6-October 06
From: Linköping, Sweden
Member No.: 866



Thanx biggrin.gif

Here an update on the clip. I changed the bassline during the solo. What do you say kris?? Much better smile.gif
Attached File(s)
Attached File  steviestyle_12_bar_blues_E_VI.MP3 ( 807.53K ) Number of downloads: 209
 


--------------------
Rock n' Roll Ain't Noise Pollution :)

Keep on rockin' in the free world!!!
Go to the top of the page
 
+Quote Post
Kristofer Dahl
post Dec 3 2006, 09:49 PM
Post #8


GMC Founder & Rocker
Group Icon

Group: GMC Instructor
Posts: 15.089
Joined: 15-August 05
From: Stockholm, Sweden
Member No.: 2



QUOTE (Esox Lucius @ Dec 3 2006, 11:13 PM) *
Thanx biggrin.gif

Here an update on the clip. I changed the bassline during the solo. What do you say kris?? Much better smile.gif


Yes it's much better now! biggrin.gif

Do you think you could tab out any of the ending licks to show us what you are doing?


--------------------
Go to the top of the page
 
+Quote Post
Esox Lucius
post Dec 3 2006, 10:50 PM
Post #9


GMC:er
*

Group: Members
Posts: 28
Joined: 6-October 06
From: Linköping, Sweden
Member No.: 866



Sure thing!

Here is the TAB for you rockers out ther wink.gif

I specially like the legato triplet licks, very typicall SRV
Attached File(s)
Attached File  stevieray_style_Eb_solo.txt ( 3.01K ) Number of downloads: 143
 


--------------------
Rock n' Roll Ain't Noise Pollution :)

Keep on rockin' in the free world!!!
Go to the top of the page
 
+Quote Post
Kristofer Dahl
post Dec 4 2006, 01:09 AM
Post #10


GMC Founder & Rocker
Group Icon

Group: GMC Instructor
Posts: 15.089
Joined: 15-August 05
From: Stockholm, Sweden
Member No.: 2



Cool - that's really nice! biggrin.gif

Here is the text document pasted:


Stevei-Ray style 12 bar blues in Eb

tune down 1 step

Eb:|-0--0--0--0--0--0--0--0--0--0--0--0--|-0--0--0--0--0--0--0--0--0--0--0--0--|
Bb:|-12-12-12-12-12-12-12-12-12-12-12-12-|-15-15-15-15-15-15-15-15-15-15-15-15-|
Gb:|-13-13-13-13-13-13-13-13-13-13-13-13-|-16-16-16-16-16-16-16-16-16-16-16-16-|
Db:|-------------------------------------|-------------------------------------|
Ab:|-------------------------------------|-------------------------------------|
Eb:|-------------------------------------|-------------------------------------|



Eb:|-0--0--0--0--0--0--0--0--0--0--0--0--|-----12-12-----12-12-----12-12-----12-12-|
Bb:|-12-12-12-12-12-12-12-12-12-12-12-12-|-----12-12-----12-12-----12-12-----12-12-|
Gb:|-13-13-13-13-13-13-13-13-13-13-13-13-|-14b-------14b-------14b-------14b-------|
Db:|-------------------------------------|-----------------------------------------|
Ab:|-------------------------------------|-----------------------------------------|
Eb:|-------------------------------------|-----------------------------------------|

Heavey vibrato (zakk wylde)

Eb:|-----12-12-----12-12-----12-12-----12-12-|-15br~---15br~---15br~---15br~---|
Bb:|-15b-------15b-------15b-------15b-------|---------------------------------|
Gb:|-----------------------------------------|---------------------------------|
Db:|-----------------------------------------|---------------------------------|
Ab:|-----------------------------------------|---------------------------------|
Eb:|-----------------------------------------|---------------------------------|


Eb:|-15p12----------12-------------------|-------------------------------|
Bb:|-------14-12h14----14p12----------12-|-------------------------------|
Gb:|-------------------------14-12h14----|-14p12----14----12~------------|
Db:|-------------------------------------|-------14----14----------------|
Ab:|-------------------------------------|-------------------------------|
Eb:|-------------------------------------|-------------------------------|


Eb:|---------------------------------------|-------15-17p15----------15-17p15-----|
Bb:|-----15-15-15-15-15-----15-15-15-15-15-|-15h17----------17-15h17----------17~-|
Gb:|-/16----------------/16----------------|--------------------------------------|
Db:|---------------------------------------|--------------------------------------|
Ab:|---------------------------------------|--------------------------------------|
Eb:|---------------------------------------|--------------------------------------|


Eb:|-3---0---------------------|-------2----------|
Bb:|---------3---0-------------|-------0----------|
Gb:|-----------------2brp0-----|-------2----------|
Db:|-----------------------2~~-|-------1----------|
Ab:|---------------------------|-2-0-1-2----------|
Eb:|---------------------------|------------------|


I used middle pickup on my stratocaster

Amp settings on my Peavey Classic 30 (all settings go from 1 to 12)
Pre-Gain 5
Post-Gain 2
Bas 9
Middle 6
Treble 6.5
Reverb 5


--------------------
Go to the top of the page
 
+Quote Post
Esox Lucius
post Dec 4 2006, 05:43 PM
Post #11


GMC:er
*

Group: Members
Posts: 28
Joined: 6-October 06
From: Linköping, Sweden
Member No.: 866



Rock n roll all nite long tongue.gif


--------------------
Rock n' Roll Ain't Noise Pollution :)

Keep on rockin' in the free world!!!
Go to the top of the page
 
+Quote Post

Reply to this topicStart new topic
1 User(s) are reading this topic (1 Guests and 0 Anonymous Users)
0 Members:

 


RSS Lo-Fi Version Time is now: 28th March 2017 - 01:34 AM