6 Pages V  « < 4 5 6  
Closed TopicStart new topic
> Si Lick Of The Day – January 2008 – Entries
Caelumamittendum
post Jan 22 2009, 11:43 PM
Post #101


Learning Rock Star
*

Group: Members
Posts: 4.384
Joined: 14-June 08
From: Copenhagen, Denmark
Member No.: 5.298



Here you have one more:

"Up the neck with chords"-lick



This lick keeps moving upwards through add9-chords, first Dmadd9, then Fadd9, Gmadd9, then Bbadd9. You could continue this even further if you want to. The pattern has an arpeggio sound/feel to it, as it only uses the notes within those chords, but the picking pattern doesn't involve sweeping, but alternate picking.

     S S S S S S S S S S S S S S S S  
E||----------1---------------5-------|
B||--3---3-5---5-3---6---6-8---8-6---|
G||----2-----------2---5-----------5-|
D||----------------------------------|
A||----------------------------------|
E||----------------------------------|


S S S S S S S S S S S S S S S S W
-----------6--------------------10----------|---------------------||
--8---8-10---10-8---11----11-13----13-11----|---------------------||
----7-------------7----10----------------10-|--12~----------------||
--------------------------------------------|---------------------||
--------------------------------------------|---------------------||
--------------------------------------------|---------------------||




--------------------
Go to the top of the page
 
+Quote Post
Velvet Roger
post Jan 23 2009, 04:57 PM
Post #102


Learning Tone Seeker
Group Icon

Group: Student Instructor
Posts: 2.093
Joined: 5-August 08
From: Amsterdam, The Netherlands
Member No.: 5.631



Cheers man! smile.gif

I like the title tongue.gif


--------------------
"Don't practice until you get it right. Practice until you can't get it wrong."

Guitars & Amps
Brian Moore DC-1 Custom Shop (Cherry Sunburst, mahogany/rosewood)
Eric Johnson Signature Strat (2-tone Sunburst, alder/maple)
Ibanez RG770 (Black, basswood/rosewood)
Peerless Journeyman (solid spruce/maple)
Sixt Bov-105C (Ovation-like acoustic) - Ibanez SGT-130 (Jumbo acoustic)
London City VS-1 (Precision bass) - Baton Rouge U3S (Ukelele)
Fender HotRod Deluxe 40W combo - Fender Princeton Reverb Reissue 5W combo - Marshall JCM 900 50W Hi-Gain combo

Effects & Other stuff
POD Studio UX2 audio interface - Edirol MA-15D monitors
EH Double Muff - Fulltone GT-500 - Fulltone Fulldrive 2 Mosfet - Guitarsystems TrebleTool Junior - Guitarsystems FuzzTool Junior
Korg Pitchblack Tuner - MXR Carbon Copy Analog Delay - TC Electronics Nova Modulator - Morley Bad Horsie 2 Wah
Shure SM58 - Roland PCR-500 midi controller/keyboard & Yamaha Clavinova CL-910 piano


My Website
My MySpace Page
My YouTube Channel
My Twitter Account
My Band 'Gonzo!'



Go to the top of the page
 
+Quote Post
Caelumamittendum
post Jan 23 2009, 05:13 PM
Post #103


Learning Rock Star
*

Group: Members
Posts: 4.384
Joined: 14-June 08
From: Copenhagen, Denmark
Member No.: 5.298



How do I insert the videos as high quality by the way?


--------------------
Go to the top of the page
 
+Quote Post
Velvet Roger
post Jan 23 2009, 05:59 PM
Post #104


Learning Tone Seeker
Group Icon

Group: Student Instructor
Posts: 2.093
Joined: 5-August 08
From: Amsterdam, The Netherlands
Member No.: 5.631



QUOTE (Caelumamittendum @ Jan 23 2009, 05:13 PM) *
How do I insert the videos as high quality by the way?


To do that you add &fmt=18. See my first lick:
CODE
[youtube]G4-b6Lks2uA&fmt=18[/youtube]


--------------------
"Don't practice until you get it right. Practice until you can't get it wrong."

Guitars & Amps
Brian Moore DC-1 Custom Shop (Cherry Sunburst, mahogany/rosewood)
Eric Johnson Signature Strat (2-tone Sunburst, alder/maple)
Ibanez RG770 (Black, basswood/rosewood)
Peerless Journeyman (solid spruce/maple)
Sixt Bov-105C (Ovation-like acoustic) - Ibanez SGT-130 (Jumbo acoustic)
London City VS-1 (Precision bass) - Baton Rouge U3S (Ukelele)
Fender HotRod Deluxe 40W combo - Fender Princeton Reverb Reissue 5W combo - Marshall JCM 900 50W Hi-Gain combo

Effects & Other stuff
POD Studio UX2 audio interface - Edirol MA-15D monitors
EH Double Muff - Fulltone GT-500 - Fulltone Fulldrive 2 Mosfet - Guitarsystems TrebleTool Junior - Guitarsystems FuzzTool Junior
Korg Pitchblack Tuner - MXR Carbon Copy Analog Delay - TC Electronics Nova Modulator - Morley Bad Horsie 2 Wah
Shure SM58 - Roland PCR-500 midi controller/keyboard & Yamaha Clavinova CL-910 piano


My Website
My MySpace Page
My YouTube Channel
My Twitter Account
My Band 'Gonzo!'



Go to the top of the page
 
+Quote Post
Caelumamittendum
post Jan 23 2009, 06:11 PM
Post #105


Learning Rock Star
*

Group: Members
Posts: 4.384
Joined: 14-June 08
From: Copenhagen, Denmark
Member No.: 5.298



QUOTE (Velvet Roger @ Jan 23 2009, 05:59 PM) *
To do that you add &fmt=18. See my first lick:
CODE
[youtube]G4-b6Lks2uA&fmt=18[/youtube]


I've been trying that, but it doesn't seem to work for me :/

And to watch your first lick in HQ, I have to press the ^ and choose HQ.


--------------------
Go to the top of the page
 
+Quote Post
Caelumamittendum
post Jan 26 2009, 10:26 AM
Post #106


Learning Rock Star
*

Group: Members
Posts: 4.384
Joined: 14-June 08
From: Copenhagen, Denmark
Member No.: 5.298



I'm sorry about not having thrown in any licks the last couple of days. Have had a friend over untill yesterday. I promise I'll give you something tonight! smile.gif


--------------------
Go to the top of the page
 
+Quote Post
Caelumamittendum
post Jan 26 2009, 10:35 PM
Post #107


Learning Rock Star
*

Group: Members
Posts: 4.384
Joined: 14-June 08
From: Copenhagen, Denmark
Member No.: 5.298



Screw the rules (sorry :-)), you're getting a few from me now while I'm at it, just to keep this baby going.

Power metal style-riff



A simple riff in D minor ending out with some more exotic licks including both D harmonic minor and C# diminished. All alternate picking, and notice the change from 4/4 to 7/8 in the fourth bar! Otherwise it's pretty simple.

        PM PM PM PM    PM PM    PM PM     
4/4 E S S S S E S S E S S E
E||--------------------------------------|
B||--------------------------------------|
G||--------------------------------------|
D||--7--------------7--------7--------8--|
A||--5--5--5--5--5--5--5--5--5--5--5--5--|
E||--------------------------------------|


PM PM PM PM PM PM PM PM PM PM PM PM PM PM PM PM
E S S S S E S S E S S E E S S S S E S S E S S E
--------------------------------------|--------------------------------------|
--------------------------------------|--------------------------------------|
--------------------------------------|--------------------------------------|
--8--------------8--------8--------5--|--5--------------5--------5--------7--|
--5--5--5--5--5--5--5--5--5--5--5--3--|--3--3--3--3--3--3--3--3--3--3--3--3--|
--------------------------------------|--------------------------------------|


7/8 PM PM PM PM PM PM PM PM 4/4
E S S S S E S S E S S H H
-----------------------------------|--------------------|
-----------------------------------|--------------------|
-----------------------------------|--------------------|
--7--------------7--------7--------|--3--------2--------|
--3--3--3--3--3--3--3--3--3--3--3--|--1--------0--------|
-----------------------------------|--------------------|


S S S S S S S S S S S S Q Q H E E
-------------------------------|----------------------|
-------------------------------|----------------------|
-------------------------------|----------------------|
--5-3-2-------2-3-2------------|----------------------|
--------5-4-5-------5-4-5-1----|--L----0--------4--7--|
-------------------------------|----------------------|


SH
E E E E E E E E W
---------------------------|----------------------||
--------------8--L~--L--9--|--<>9~----------------||
--------6--9---------------|----------------------||
--5--8---------------------|----------------------||
---------------------------|----------------------||
---------------------------|----------------------||












Exotica!



I have bit of a liking for exotic stuff, I admit. This one is in C lydian diminished. It starts out in 4/4, goes to 7/8 then 2/4. It may look intimidating, but once you get the hang of the rythm, it's quite some catching phrases to play. Also be aware of the small roll I do with my finger to play the notes F# and d on the 7th fret of the B string and the G string. I find this the most comfortable way of doing it, but you may not agree :-)


4/4 7/8
E S S S S E E E S S S S E E E S S S S E E
E||-------------------------------|--------------------------|
B||--------------------7--L-----0-|--7--8--10--L-8---0-7--8--|
G||*--5--L-0---0-5--8-------7-----|--------------------------|
D||*------------------------------|--------------------------|
A||-------------------------------|--------------------------|
E||-------------------------------|--------------------------|


2/4
E S S E S S H
-----------------||------------||
--7--L-----------||------------||
-------8----7---*||--5~--------||
----------------*||------------||
-----------------||------------||
-----------------||------------||



Yet another arpeggio lick



Not much to explain about this really, as it doesn't use any really not-seen-before patterns. Try and keep in mind that you want to avoid any unwanted noise when playing these kind of arpeggios! smile.gif

     Q     S  S  S  S   S S  Q      S  S  
E||--------------------------------------|
B||----------------12s-14---12~-------12-|
G||-------------11-----------------11----|
D||----------12--------------------------|
A||--9----14-----------------------------|
E||--------------------------------------|


S S S S S S S S S S S S S S E W
--10-14p-10----10------------------------------|--------------------||
------------12----12----12---------------------|--------------------||
---------------------11----11----11------------|--------------------||
------------------------------12----12---------|--------------------||
---------------------------------------14-9-L--|--L~----------------||
-----------------------------------------------|--------------------||



--------------------
Go to the top of the page
 
+Quote Post
Velvet Roger
post Jan 26 2009, 10:50 PM
Post #108


Learning Tone Seeker
Group Icon

Group: Student Instructor
Posts: 2.093
Joined: 5-August 08
From: Amsterdam, The Netherlands
Member No.: 5.631



Many thanks, I needed them smile.gif


--------------------
"Don't practice until you get it right. Practice until you can't get it wrong."

Guitars & Amps
Brian Moore DC-1 Custom Shop (Cherry Sunburst, mahogany/rosewood)
Eric Johnson Signature Strat (2-tone Sunburst, alder/maple)
Ibanez RG770 (Black, basswood/rosewood)
Peerless Journeyman (solid spruce/maple)
Sixt Bov-105C (Ovation-like acoustic) - Ibanez SGT-130 (Jumbo acoustic)
London City VS-1 (Precision bass) - Baton Rouge U3S (Ukelele)
Fender HotRod Deluxe 40W combo - Fender Princeton Reverb Reissue 5W combo - Marshall JCM 900 50W Hi-Gain combo

Effects & Other stuff
POD Studio UX2 audio interface - Edirol MA-15D monitors
EH Double Muff - Fulltone GT-500 - Fulltone Fulldrive 2 Mosfet - Guitarsystems TrebleTool Junior - Guitarsystems FuzzTool Junior
Korg Pitchblack Tuner - MXR Carbon Copy Analog Delay - TC Electronics Nova Modulator - Morley Bad Horsie 2 Wah
Shure SM58 - Roland PCR-500 midi controller/keyboard & Yamaha Clavinova CL-910 piano


My Website
My MySpace Page
My YouTube Channel
My Twitter Account
My Band 'Gonzo!'



Go to the top of the page
 
+Quote Post
Caelumamittendum
post Jan 26 2009, 11:06 PM
Post #109


Learning Rock Star
*

Group: Members
Posts: 4.384
Joined: 14-June 08
From: Copenhagen, Denmark
Member No.: 5.298



My pleasure! I'll do a few more every day probably, if I'm allowed to. Just to build up your library wink.gif


--------------------
Go to the top of the page
 
+Quote Post
lcsdds
post Jan 30 2009, 11:58 AM
Post #110


Learning Tone Seeker
*

Group: Members
Posts: 2.054
Joined: 2-September 08
Member No.: 5.825



Sorry I dropped out for awhile Roger. I've been working on those collabs for Emir and Pedja and being a married dude I only have so many hours of "guitar time" a day. laugh.gif laugh.gif I'm done with the collabs now and have some new licks to start posting so I'll be back on the wagon and contributing regularly probably starting in the next couple of days. Thanks for working on this thread. Thanks to Ben and playaxeman for contributing as well. biggrin.gif

Monte
Go to the top of the page
 
+Quote Post
Velvet Roger
post Jan 30 2009, 07:47 PM
Post #111


Learning Tone Seeker
Group Icon

Group: Student Instructor
Posts: 2.093
Joined: 5-August 08
From: Amsterdam, The Netherlands
Member No.: 5.631



QUOTE (lcsdds @ Jan 30 2009, 11:58 AM) *
Sorry I dropped out for awhile Roger. I've been working on those collabs for Emir and Pedja and being a married dude I only have so many hours of "guitar time" a day. laugh.gif laugh.gif I'm done with the collabs now and have some new licks to start posting so I'll be back on the wagon and contributing regularly probably starting in the next couple of days. Thanks for working on this thread. Thanks to Ben and playaxeman for contributing as well. biggrin.gif

Monte


That would be awesome Monte! I have also loads on my plate (both work, private and having too many musical things tongue.gif, but should be able to record some licks soonish myself smile.gif


--------------------
"Don't practice until you get it right. Practice until you can't get it wrong."

Guitars & Amps
Brian Moore DC-1 Custom Shop (Cherry Sunburst, mahogany/rosewood)
Eric Johnson Signature Strat (2-tone Sunburst, alder/maple)
Ibanez RG770 (Black, basswood/rosewood)
Peerless Journeyman (solid spruce/maple)
Sixt Bov-105C (Ovation-like acoustic) - Ibanez SGT-130 (Jumbo acoustic)
London City VS-1 (Precision bass) - Baton Rouge U3S (Ukelele)
Fender HotRod Deluxe 40W combo - Fender Princeton Reverb Reissue 5W combo - Marshall JCM 900 50W Hi-Gain combo

Effects & Other stuff
POD Studio UX2 audio interface - Edirol MA-15D monitors
EH Double Muff - Fulltone GT-500 - Fulltone Fulldrive 2 Mosfet - Guitarsystems TrebleTool Junior - Guitarsystems FuzzTool Junior
Korg Pitchblack Tuner - MXR Carbon Copy Analog Delay - TC Electronics Nova Modulator - Morley Bad Horsie 2 Wah
Shure SM58 - Roland PCR-500 midi controller/keyboard & Yamaha Clavinova CL-910 piano


My Website
My MySpace Page
My YouTube Channel
My Twitter Account
My Band 'Gonzo!'



Go to the top of the page
 
+Quote Post

6 Pages V  « < 4 5 6
Closed TopicStart new topic
1 User(s) are reading this topic (1 Guests and 0 Anonymous Users)
0 Members:

 


RSS Lo-Fi Version Time is now: 29th March 2017 - 10:10 PM