2 Pages V  < 1 2  
Closed TopicStart new topic
> Si Lick Of The Day – January 2008 - Selected Licks
Velvet Roger
post Jan 22 2009, 11:31 PM
Post #21


Learning Tone Seeker
Group Icon

Group: Student Instructor
Posts: 2.093
Joined: 5-August 08
From: Amsterdam, The Netherlands
Member No.: 5.631



SI Lick of the Day - 22nd of January 2009

Submitted by:
Caelumamittendum

F#minor lick

This lick is built around a basic F#minor arpeggio, but has some notes that add various flavors to the chord. It uses slides and string skipping to make it a little more interesting.



Spor 1
S S S S S S S S S S E Q
E||-------------------------14--------------|
B||-------------10-9-10s-14----14s-10--L----|
G||----------11-----------------------------|
D||-------11--------------------------------|
A||--9-12-----------------------------------|
E||-----------------------------------------|


S S S S S S S S H
-------------12---------------------||
--9-10p-9-------9h-10p-9s-7~--------||
----------11------------------------||
------------------------------------||
------------------------------------||
------------------------------------||


--------------------
"Don't practice until you get it right. Practice until you can't get it wrong."

Guitars & Amps
Brian Moore DC-1 Custom Shop (Cherry Sunburst, mahogany/rosewood)
Eric Johnson Signature Strat (2-tone Sunburst, alder/maple)
Ibanez RG770 (Black, basswood/rosewood)
Peerless Journeyman (solid spruce/maple)
Sixt Bov-105C (Ovation-like acoustic) - Ibanez SGT-130 (Jumbo acoustic)
London City VS-1 (Precision bass) - Baton Rouge U3S (Ukelele)
Fender HotRod Deluxe 40W combo - Fender Princeton Reverb Reissue 5W combo - Marshall JCM 900 50W Hi-Gain combo

Effects & Other stuff
POD Studio UX2 audio interface - Edirol MA-15D monitors
EH Double Muff - Fulltone GT-500 - Fulltone Fulldrive 2 Mosfet - Guitarsystems TrebleTool Junior - Guitarsystems FuzzTool Junior
Korg Pitchblack Tuner - MXR Carbon Copy Analog Delay - TC Electronics Nova Modulator - Morley Bad Horsie 2 Wah
Shure SM58 - Roland PCR-500 midi controller/keyboard & Yamaha Clavinova CL-910 piano


My Website
My MySpace Page
My YouTube Channel
My Twitter Account
My Band 'Gonzo!'



Go to the top of the page
 
+Quote Post
Velvet Roger
post Jan 24 2009, 10:47 PM
Post #22


Learning Tone Seeker
Group Icon

Group: Student Instructor
Posts: 2.093
Joined: 5-August 08
From: Amsterdam, The Netherlands
Member No.: 5.631



SI Lick of the Day - 23rd of January 2009

Submitted by:
Caelumamittendum

"Up the neck with chords"-lick



This lick keeps moving upwards through add9-chords, first Dmadd9, then Fadd9, Gmadd9, then Bbadd9. You could continue this even further if you want to. The pattern has an arpeggio sound/feel to it, as it only uses the notes within those chords, but the picking pattern doesn't involve sweeping, but alternate picking.

     S S S S S S S S S S S S S S S S  
E||----------1---------------5-------|
B||--3---3-5---5-3---6---6-8---8-6---|
G||----2-----------2---5-----------5-|
D||----------------------------------|
A||----------------------------------|
E||----------------------------------|



S S S S S S S S S S S S S S S S W
-----------6--------------------10----------|---------------------||
--8---8-10---10-8---11----11-13----13-11----|---------------------||
----7-------------7----10----------------10-|--12~----------------||
--------------------------------------------|---------------------||
--------------------------------------------|---------------------||
--------------------------------------------|---------------------||


SI Lick of the Day - 24th of January 2009

Submitted by:
Velvet Roger

This quite easy funky-style riff is based on the B minor scale and moves quickly between the chord progression:

Bar 1 & 3: I - IV (with passing notes)
Bar 2 & 4: I - III - IV - II






--------------------
"Don't practice until you get it right. Practice until you can't get it wrong."

Guitars & Amps
Brian Moore DC-1 Custom Shop (Cherry Sunburst, mahogany/rosewood)
Eric Johnson Signature Strat (2-tone Sunburst, alder/maple)
Ibanez RG770 (Black, basswood/rosewood)
Peerless Journeyman (solid spruce/maple)
Sixt Bov-105C (Ovation-like acoustic) - Ibanez SGT-130 (Jumbo acoustic)
London City VS-1 (Precision bass) - Baton Rouge U3S (Ukelele)
Fender HotRod Deluxe 40W combo - Fender Princeton Reverb Reissue 5W combo - Marshall JCM 900 50W Hi-Gain combo

Effects & Other stuff
POD Studio UX2 audio interface - Edirol MA-15D monitors
EH Double Muff - Fulltone GT-500 - Fulltone Fulldrive 2 Mosfet - Guitarsystems TrebleTool Junior - Guitarsystems FuzzTool Junior
Korg Pitchblack Tuner - MXR Carbon Copy Analog Delay - TC Electronics Nova Modulator - Morley Bad Horsie 2 Wah
Shure SM58 - Roland PCR-500 midi controller/keyboard & Yamaha Clavinova CL-910 piano


My Website
My MySpace Page
My YouTube Channel
My Twitter Account
My Band 'Gonzo!'



Go to the top of the page
 
+Quote Post
Velvet Roger
post Jan 26 2009, 12:10 AM
Post #23


Learning Tone Seeker
Group Icon

Group: Student Instructor
Posts: 2.093
Joined: 5-August 08
From: Amsterdam, The Netherlands
Member No.: 5.631



SI Lick of the Day - 25th of January 2009

Unfortunately, no licks are available anymore. It's much appreciated if more people get involved in recorded an occassional lick of the day (together it should be a breeze to fill the selected licks each day smile.gif).

This post has been edited by Velvet Roger: Jan 27 2009, 11:14 PM


--------------------
"Don't practice until you get it right. Practice until you can't get it wrong."

Guitars & Amps
Brian Moore DC-1 Custom Shop (Cherry Sunburst, mahogany/rosewood)
Eric Johnson Signature Strat (2-tone Sunburst, alder/maple)
Ibanez RG770 (Black, basswood/rosewood)
Peerless Journeyman (solid spruce/maple)
Sixt Bov-105C (Ovation-like acoustic) - Ibanez SGT-130 (Jumbo acoustic)
London City VS-1 (Precision bass) - Baton Rouge U3S (Ukelele)
Fender HotRod Deluxe 40W combo - Fender Princeton Reverb Reissue 5W combo - Marshall JCM 900 50W Hi-Gain combo

Effects & Other stuff
POD Studio UX2 audio interface - Edirol MA-15D monitors
EH Double Muff - Fulltone GT-500 - Fulltone Fulldrive 2 Mosfet - Guitarsystems TrebleTool Junior - Guitarsystems FuzzTool Junior
Korg Pitchblack Tuner - MXR Carbon Copy Analog Delay - TC Electronics Nova Modulator - Morley Bad Horsie 2 Wah
Shure SM58 - Roland PCR-500 midi controller/keyboard & Yamaha Clavinova CL-910 piano


My Website
My MySpace Page
My YouTube Channel
My Twitter Account
My Band 'Gonzo!'



Go to the top of the page
 
+Quote Post
Velvet Roger
post Jan 27 2009, 12:10 AM
Post #24


Learning Tone Seeker
Group Icon

Group: Student Instructor
Posts: 2.093
Joined: 5-August 08
From: Amsterdam, The Netherlands
Member No.: 5.631



SI Lick of the Day - 26th of January 2009

Submitted by: Caelumamittendum

Power metal style-riff



A simple riff in D minor ending out with some more exotic licks including both D harmonic minor and C# diminished. All alternate picking, and notice the change from 4/4 to 7/8 in the fourth bar! Otherwise it's pretty simple.

        PM PM PM PM    PM PM    PM PM          PM PM PM PM    PM PM    PM PM          PM PM PM PM    PM PM    PM PM     
4/4 E S S S S E S S E S S E E S S S S E S S E S S E E S S S S E S S E S S E
E||--------------------------------------|--------------------------------------|--------------------------------------|
B||--------------------------------------|--------------------------------------|--------------------------------------|
G||--------------------------------------|--------------------------------------|--------------------------------------|
D||--7--------------7--------7--------8--|--8--------------8--------8--------5--|--5--------------5--------5--------7--|
A||--5--5--5--5--5--5--5--5--5--5--5--5--|--5--5--5--5--5--5--5--5--5--5--5--3--|--3--3--3--3--3--3--3--3--3--3--3--3--|
E||--------------------------------------|--------------------------------------|--------------------------------------|


7/8  PM PM PM PM    PM PM    PM PM  4/4                     
E S S S S E S S E S S H H
-----------------------------------|--------------------|
-----------------------------------|--------------------|
-----------------------------------|--------------------|
--7--------------7--------7--------|--3--------2--------|
--3--3--3--3--3--3--3--3--3--3--3--|--1--------0--------|
-----------------------------------|--------------------|



  S S S S S S S S S S S S Q       Q    H        E  E   
-------------------------------|----------------------|
-------------------------------|----------------------|
-------------------------------|----------------------|
--5-3-2-------2-3-2------------|----------------------|
--------5-4-5-------5-4-5-1----|--L----0--------4--7--|
-------------------------------|----------------------|



SH                  
E E E E E E E E W
---------------------------|----------------------||
--------------8--L~--L--9--|--<>9~----------------||
--------6--9---------------|----------------------||
--5--8---------------------|----------------------||
---------------------------|----------------------||
---------------------------|----------------------||


This post has been edited by Velvet Roger: Jan 27 2009, 11:14 PM


--------------------
"Don't practice until you get it right. Practice until you can't get it wrong."

Guitars & Amps
Brian Moore DC-1 Custom Shop (Cherry Sunburst, mahogany/rosewood)
Eric Johnson Signature Strat (2-tone Sunburst, alder/maple)
Ibanez RG770 (Black, basswood/rosewood)
Peerless Journeyman (solid spruce/maple)
Sixt Bov-105C (Ovation-like acoustic) - Ibanez SGT-130 (Jumbo acoustic)
London City VS-1 (Precision bass) - Baton Rouge U3S (Ukelele)
Fender HotRod Deluxe 40W combo - Fender Princeton Reverb Reissue 5W combo - Marshall JCM 900 50W Hi-Gain combo

Effects & Other stuff
POD Studio UX2 audio interface - Edirol MA-15D monitors
EH Double Muff - Fulltone GT-500 - Fulltone Fulldrive 2 Mosfet - Guitarsystems TrebleTool Junior - Guitarsystems FuzzTool Junior
Korg Pitchblack Tuner - MXR Carbon Copy Analog Delay - TC Electronics Nova Modulator - Morley Bad Horsie 2 Wah
Shure SM58 - Roland PCR-500 midi controller/keyboard & Yamaha Clavinova CL-910 piano


My Website
My MySpace Page
My YouTube Channel
My Twitter Account
My Band 'Gonzo!'



Go to the top of the page
 
+Quote Post
Velvet Roger
post Jan 27 2009, 11:14 PM
Post #25


Learning Tone Seeker
Group Icon

Group: Student Instructor
Posts: 2.093
Joined: 5-August 08
From: Amsterdam, The Netherlands
Member No.: 5.631



SI Lick of the Day - 27th of January 2009

Submitted by: Caelumamittendum

Exotica!



I have bit of a liking for exotic stuff, I admit. This one is in C lydian diminished. It starts out in 4/4, goes to 7/8 then 2/4. It may look intimidating, but once you get the hang of the rythm, it's quite some catching phrases to play. Also be aware of the small roll I do with my finger to play the notes F# and d on the 7th fret of the B string and the G string. I find this the most comfortable way of doing it, but you may not agree :-)


4/4 7/8
E S S S S E E E S S S S E E E S S S S E E
E||-------------------------------|--------------------------|
B||--------------------7--L-----0-|--7--8--10--L-8---0-7--8--|
G||*--5--L-0---0-5--8-------7-----|--------------------------|
D||*------------------------------|--------------------------|
A||-------------------------------|--------------------------|
E||-------------------------------|--------------------------|



2/4
E S S E S S H
-----------------||------------||
--7--L-----------||------------||
-------8----7---*||--5~--------||
----------------*||------------||
-----------------||------------||
-----------------||------------||


--------------------
"Don't practice until you get it right. Practice until you can't get it wrong."

Guitars & Amps
Brian Moore DC-1 Custom Shop (Cherry Sunburst, mahogany/rosewood)
Eric Johnson Signature Strat (2-tone Sunburst, alder/maple)
Ibanez RG770 (Black, basswood/rosewood)
Peerless Journeyman (solid spruce/maple)
Sixt Bov-105C (Ovation-like acoustic) - Ibanez SGT-130 (Jumbo acoustic)
London City VS-1 (Precision bass) - Baton Rouge U3S (Ukelele)
Fender HotRod Deluxe 40W combo - Fender Princeton Reverb Reissue 5W combo - Marshall JCM 900 50W Hi-Gain combo

Effects & Other stuff
POD Studio UX2 audio interface - Edirol MA-15D monitors
EH Double Muff - Fulltone GT-500 - Fulltone Fulldrive 2 Mosfet - Guitarsystems TrebleTool Junior - Guitarsystems FuzzTool Junior
Korg Pitchblack Tuner - MXR Carbon Copy Analog Delay - TC Electronics Nova Modulator - Morley Bad Horsie 2 Wah
Shure SM58 - Roland PCR-500 midi controller/keyboard & Yamaha Clavinova CL-910 piano


My Website
My MySpace Page
My YouTube Channel
My Twitter Account
My Band 'Gonzo!'



Go to the top of the page
 
+Quote Post
Velvet Roger
post Jan 28 2009, 11:20 PM
Post #26


Learning Tone Seeker
Group Icon

Group: Student Instructor
Posts: 2.093
Joined: 5-August 08
From: Amsterdam, The Netherlands
Member No.: 5.631



SI Lick of the Day - 28th of January 2009

Submitted by: Caelumamittendum

Yet another arpeggio lick



Not much to explain about this really, as it doesn't use any really not-seen-before patterns. Try and keep in mind that you want to avoid any unwanted noise when playing these kind of arpeggios! smile.gif

     Q     S  S  S  S   S S  Q      S  S  
E||--------------------------------------|
B||----------------12s-14---12~-------12-|
G||-------------11-----------------11----|
D||----------12--------------------------|
A||--9----14-----------------------------|
E||--------------------------------------|



S S S S S S S S S S S S S S E W
--10-14p-10----10------------------------------|--------------------||
------------12----12----12---------------------|--------------------||
---------------------11----11----11------------|--------------------||
------------------------------12----12---------|--------------------||
---------------------------------------14-9-L--|--L~----------------||
-----------------------------------------------|--------------------||


--------------------
"Don't practice until you get it right. Practice until you can't get it wrong."

Guitars & Amps
Brian Moore DC-1 Custom Shop (Cherry Sunburst, mahogany/rosewood)
Eric Johnson Signature Strat (2-tone Sunburst, alder/maple)
Ibanez RG770 (Black, basswood/rosewood)
Peerless Journeyman (solid spruce/maple)
Sixt Bov-105C (Ovation-like acoustic) - Ibanez SGT-130 (Jumbo acoustic)
London City VS-1 (Precision bass) - Baton Rouge U3S (Ukelele)
Fender HotRod Deluxe 40W combo - Fender Princeton Reverb Reissue 5W combo - Marshall JCM 900 50W Hi-Gain combo

Effects & Other stuff
POD Studio UX2 audio interface - Edirol MA-15D monitors
EH Double Muff - Fulltone GT-500 - Fulltone Fulldrive 2 Mosfet - Guitarsystems TrebleTool Junior - Guitarsystems FuzzTool Junior
Korg Pitchblack Tuner - MXR Carbon Copy Analog Delay - TC Electronics Nova Modulator - Morley Bad Horsie 2 Wah
Shure SM58 - Roland PCR-500 midi controller/keyboard & Yamaha Clavinova CL-910 piano


My Website
My MySpace Page
My YouTube Channel
My Twitter Account
My Band 'Gonzo!'



Go to the top of the page
 
+Quote Post
Fran
post Jan 29 2009, 04:33 PM
Post #27


Learning Rock Star - Wiki Coordinator
Group Icon

Group: GMC Senior
Posts: 7.963
Joined: 20-November 07
From: Spain
Member No.: 3.338



This is an awesome thread, I will make sure to feature these licks on the Journal now that we have the embed video Option!

EDit: Just added the video of the day at the Journal

This post has been edited by Fran: Jan 29 2009, 05:06 PM


--------------------
Guitars:
Fender American Deluxe Stratocaster, Ibanez RG2570MZ, Epiphone SG G-400
Amp:
Vox AC4TVH head + V112TV cab
Effects:
Vox Satchurator, Vox Time Machine, Dunlop CryBaby, Boss MT-2, Boss CE-5, Boss TU-2, Boss ME-70
Recording:
Line-6 POD X3 + FBV-Express, Pandora PX5D

GMC wants YOU to take part in our Guitar-Wikipedia!
Have a good time reading great articles and writing your own with us in our GUITAR WIKI!
Share your playing and get Pro-advice from our Instructors: Join REC
Go to the top of the page
 
+Quote Post
Velvet Roger
post Jan 30 2009, 09:15 AM
Post #28


Learning Tone Seeker
Group Icon

Group: Student Instructor
Posts: 2.093
Joined: 5-August 08
From: Amsterdam, The Netherlands
Member No.: 5.631



SI Lick of the Day - 29th of January 2009

Unfortunately, no licks are available anymore. Go get and record some! smile.gif

QUOTE (Fran @ Jan 29 2009, 04:33 PM) *
This is an awesome thread, I will make sure to feature these licks on the Journal now that we have the embed video Option!

EDit: Just added the video of the day at the Journal


That's great Fran, thanks!!! smile.gif


--------------------
"Don't practice until you get it right. Practice until you can't get it wrong."

Guitars & Amps
Brian Moore DC-1 Custom Shop (Cherry Sunburst, mahogany/rosewood)
Eric Johnson Signature Strat (2-tone Sunburst, alder/maple)
Ibanez RG770 (Black, basswood/rosewood)
Peerless Journeyman (solid spruce/maple)
Sixt Bov-105C (Ovation-like acoustic) - Ibanez SGT-130 (Jumbo acoustic)
London City VS-1 (Precision bass) - Baton Rouge U3S (Ukelele)
Fender HotRod Deluxe 40W combo - Fender Princeton Reverb Reissue 5W combo - Marshall JCM 900 50W Hi-Gain combo

Effects & Other stuff
POD Studio UX2 audio interface - Edirol MA-15D monitors
EH Double Muff - Fulltone GT-500 - Fulltone Fulldrive 2 Mosfet - Guitarsystems TrebleTool Junior - Guitarsystems FuzzTool Junior
Korg Pitchblack Tuner - MXR Carbon Copy Analog Delay - TC Electronics Nova Modulator - Morley Bad Horsie 2 Wah
Shure SM58 - Roland PCR-500 midi controller/keyboard & Yamaha Clavinova CL-910 piano


My Website
My MySpace Page
My YouTube Channel
My Twitter Account
My Band 'Gonzo!'



Go to the top of the page
 
+Quote Post
Caelumamittendum
post Jan 30 2009, 10:40 AM
Post #29


Learning Rock Star
*

Group: Members
Posts: 4.617
Joined: 14-June 08
From: Copenhagen, Denmark
Member No.: 5.298



I'm going home to my girlfriend for the weekend, so I won't be able to upload anything during the weekend, but I will be back in February, if this thing is still going by then.

EDIT: DOOOH! Wrong thread.

This post has been edited by Caelumamittendum: Jan 30 2009, 10:41 AM


--------------------
Go to the top of the page
 
+Quote Post
Velvet Roger
post Jan 31 2009, 10:25 PM
Post #30


Learning Tone Seeker
Group Icon

Group: Student Instructor
Posts: 2.093
Joined: 5-August 08
From: Amsterdam, The Netherlands
Member No.: 5.631



SI Lick of the Day - 30th & 31st of January 2009

Unfortunately, no licks are available anymore.


--------------------
"Don't practice until you get it right. Practice until you can't get it wrong."

Guitars & Amps
Brian Moore DC-1 Custom Shop (Cherry Sunburst, mahogany/rosewood)
Eric Johnson Signature Strat (2-tone Sunburst, alder/maple)
Ibanez RG770 (Black, basswood/rosewood)
Peerless Journeyman (solid spruce/maple)
Sixt Bov-105C (Ovation-like acoustic) - Ibanez SGT-130 (Jumbo acoustic)
London City VS-1 (Precision bass) - Baton Rouge U3S (Ukelele)
Fender HotRod Deluxe 40W combo - Fender Princeton Reverb Reissue 5W combo - Marshall JCM 900 50W Hi-Gain combo

Effects & Other stuff
POD Studio UX2 audio interface - Edirol MA-15D monitors
EH Double Muff - Fulltone GT-500 - Fulltone Fulldrive 2 Mosfet - Guitarsystems TrebleTool Junior - Guitarsystems FuzzTool Junior
Korg Pitchblack Tuner - MXR Carbon Copy Analog Delay - TC Electronics Nova Modulator - Morley Bad Horsie 2 Wah
Shure SM58 - Roland PCR-500 midi controller/keyboard & Yamaha Clavinova CL-910 piano


My Website
My MySpace Page
My YouTube Channel
My Twitter Account
My Band 'Gonzo!'



Go to the top of the page
 
+Quote Post

2 Pages V  < 1 2
Closed TopicStart new topic
1 User(s) are reading this topic (1 Guests and 0 Anonymous Users)
0 Members:

 


RSS Lo-Fi Version Time is now: 25th September 2017 - 03:46 AM