Reply to this topicStart new topic
> Need You'r Expert Ear Again!, this time the sound quality is good.
Iluha
post Feb 10 2009, 03:02 PM
Post #1


GMC:er
*

Group: Members
Posts: 1.737
Joined: 14-April 07
From: Karmiel, Israel
Member No.: 1.574



Hey guys, sorry to bother you with this again, this time it's for another solo.



If you could please tab out for me what he's playing from 0:33 - 0:41 I will really apriciate it smile.gif


--------------------


My Latest Upload: Here!

My Practice Agenda/Blog: Here!
Go to the top of the page
 
+Quote Post
Muris Varajic
post Feb 10 2009, 03:18 PM
Post #2


Instructor
Group Icon

Group: GMC Instructor
Posts: 15.459
Joined: 22-June 07
From: Sarajevo,Bosnia
Member No.: 2.159



----------------------------------------------------------------------------------17-19-20-19-17---- etc.
---17-18-17----17------------------17-18-17--17--------------------17-18-20----------------------------
------------20----20-19-17-19-20-----------20-----20-19-17-19-20----------------------------------------
-----------------------------------------------------------------------------------------------------------------
------------------------------------------------------------------------------------------------------------------
---------------------------------------------------------------------------------------------------------------


After that you have plenty of random chromatic licks around Am pentatonics,
A and D strings, 17th,18th and 19th frets.
This was another none epic lick imho so stay on those frets,
play whatever you want using same approach and it'll be fine. smile.gif

This post has been edited by Muris Varajic: Feb 10 2009, 03:19 PM


--------------------
Youtube
MySpace
Website



Album "Let It Out" on
iTunes
and CD Baby

Check out my video lessons and instructor board!

The Pianist
tune is progress,check it out!

"ok.. it is great.. :P

have you myspace? Can i to personalize this for you guy?"
Go to the top of the page
 
+Quote Post
Iluha
post Feb 11 2009, 12:23 PM
Post #3


GMC:er
*

Group: Members
Posts: 1.737
Joined: 14-April 07
From: Karmiel, Israel
Member No.: 1.574



QUOTE (Muris Varajic @ Feb 10 2009, 04:18 PM) *
----------------------------------------------------------------------------------17-19-20-19-17---- etc.
---17-18-17----17------------------17-18-17--17--------------------17-18-20----------------------------
------------20----20-19-17-19-20-----------20-----20-19-17-19-20----------------------------------------
-----------------------------------------------------------------------------------------------------------------
------------------------------------------------------------------------------------------------------------------
---------------------------------------------------------------------------------------------------------------


After that you have plenty of random chromatic licks around Am pentatonics,
A and D strings, 17th,18th and 19th frets.
This was another none epic lick imho so stay on those frets,
play whatever you want using same approach and it'll be fine. smile.gif


Are you sure it's around the 17th-19th frets? I'm preety sure that when he's descending he's going back to the E phrygian starting from the 12th fret position.

I know it's not anything epic, but I just can't get that same effect with fast licks, so I just want to know exactly what he's doing so I'll have some idea on how to write fast licks with that effect.


--------------------


My Latest Upload: Here!

My Practice Agenda/Blog: Here!
Go to the top of the page
 
+Quote Post
Muris Varajic
post Feb 11 2009, 12:35 PM
Post #4


Instructor
Group Icon

Group: GMC Instructor
Posts: 15.459
Joined: 22-June 07
From: Sarajevo,Bosnia
Member No.: 2.159



QUOTE (Iluha @ Feb 11 2009, 12:23 PM) *
Are you sure it's around the 17th-19th frets? I'm preety sure that when he's descending he's going back to the E phrygian starting from the 12th fret position.

I know it's not anything epic, but I just can't get that same effect with fast licks, so I just want to know exactly what he's doing so I'll have some idea on how to write fast licks with that effect.


It's in key of Am so E Phrygian is maybe confusing thing to say. smile.gif
And 12th fret high E is the same note as 17th fret on B string, note is E.
After that you have to reach up 20th fret on high E and I thought
it would be easier to stay on same position.
I can try to give you full tab when I got some spare time,
it was played a bit sloppy rhythmically wise and it'll be tricky
to repeat it 100% the same. smile.gif


--------------------
Youtube
MySpace
Website



Album "Let It Out" on
iTunes
and CD Baby

Check out my video lessons and instructor board!

The Pianist
tune is progress,check it out!

"ok.. it is great.. :P

have you myspace? Can i to personalize this for you guy?"
Go to the top of the page
 
+Quote Post
Iluha
post Feb 11 2009, 01:18 PM
Post #5


GMC:er
*

Group: Members
Posts: 1.737
Joined: 14-April 07
From: Karmiel, Israel
Member No.: 1.574



QUOTE (Muris Varajic @ Feb 11 2009, 01:35 PM) *
It's in key of Am so E Phrygian is maybe confusing thing to say. smile.gif
And 12th fret high E is the same note as 17th fret on B string, note is E.
After that you have to reach up 20th fret on high E and I thought
it would be easier to stay on same position.
I can try to give you full tab when I got some spare time,
it was played a bit sloppy rhythmically wise and it'll be tricky
to repeat it 100% the same. smile.gif

I actually thought it WAS E phrygian, but now that I think abou it, when looking at the chord progression, it makes sense that's it's in A minor hehe.

No no, I agree with with you that the upscend is from the 17th on the B fret, but than he descends, and there I'm preety sure he reaches the 14th and 12th frets of the A and low E strings..

If you could, it would be great man, I don't need it to be 100% just something that will have the same effect!

Thanks Muris smile.gif


--------------------


My Latest Upload: Here!

My Practice Agenda/Blog: Here!
Go to the top of the page
 
+Quote Post
Muris Varajic
post Feb 11 2009, 01:20 PM
Post #6


Instructor
Group Icon

Group: GMC Instructor
Posts: 15.459
Joined: 22-June 07
From: Sarajevo,Bosnia
Member No.: 2.159



I believe lowest note was D on A string 17th fret
or 12th fret on D string, dependes of position where you play.
Will see if I can make you full tab, can't promise when tho. smile.gif


--------------------
Youtube
MySpace
Website



Album "Let It Out" on
iTunes
and CD Baby

Check out my video lessons and instructor board!

The Pianist
tune is progress,check it out!

"ok.. it is great.. :P

have you myspace? Can i to personalize this for you guy?"
Go to the top of the page
 
+Quote Post

Fast ReplyReply to this topicStart new topic
1 User(s) are reading this topic (1 Guests and 0 Anonymous Users)
0 Members:

 


RSS Lo-Fi Version Time is now: 26th July 2017 - 09:54 AM