Reply to this topicStart new topic
> Kirk Hammet lesson
Norven
post Jan 21 2007, 03:55 AM
Post #1


GMC:er
*

Group: Members
Posts: 216
Joined: 5-April 06
From: Sweden
Member No.: 656



I checked around on the kirk hammet lesson because I haven´t practised anything from it for month.
And I think I found something wrong on a tab.. in the end.

e|-------------------------------------------3--|
b|-------------------------------3---3-5-3-5----|
g|-------------------3---3-5-3-5---5------------|
d|-------3---3-5-3-5---5------------------------|
a|-5-3-5---5------------------------------------|
e|----------------------------------------------|

e|-------------------------------------------1--|
b|-------------------------------1---1-4-1-4----|
g|-------------------1---1-3-1-3---3------------|
d|-------1---1-3-1-3---3------------------------|
a|-3-1-3---3------------------------------------|
e|----------------------------------------------|


I have listened when Kris play the licks.. but when I play after the tab (above), ehm.. It just doesn´t sound like kris..

Can you check it out kris?


--------------------
The Guitar may be the love of life.
Go to the top of the page
 
+Quote Post
Kristofer Dahl
post Jan 22 2007, 04:30 PM
Post #2


GMC Founder & Rocker
Group Icon

Group: GMC Instructor
Posts: 15.306
Joined: 15-August 05
From: Stockholm, Sweden
Member No.: 2



e|-------------------------------------------3--|
b|-------------------------------3---3-6-3-6----|
g|-------------------3---3-5-3-5---5------------|
d|-------3---3-5-3-5---5------------------------|
a|-5-3-5---5------------------------------------|
e|----------------------------------------------|

e|-------------------------------------------1--|
b|-------------------------------1---1-4-1-4----|
g|-------------------1---1-3-1-3---3------------|
d|-------1---1-3-1-3---3------------------------|
a|-3-1-3---3------------------------------------|
e|----------------------------------------------|


I think it should be this instead.


--------------------
Go to the top of the page
 
+Quote Post
Norven
post Jan 22 2007, 10:36 PM
Post #3


GMC:er
*

Group: Members
Posts: 216
Joined: 5-April 06
From: Sweden
Member No.: 656



Thx


--------------------
The Guitar may be the love of life.
Go to the top of the page
 
+Quote Post

Fast ReplyReply to this topicStart new topic
1 User(s) are reading this topic (1 Guests and 0 Anonymous Users)
0 Members:

 


RSS Lo-Fi Version Time is now: 24th September 2017 - 02:59 PM