Reply to this topicStart new topic
> Dueling Banjo intro for MickeM
beebo
post Jan 29 2007, 02:09 AM
Post #1


GMC:er
*

Group: Members
Posts: 598
Joined: 7-December 06
Member No.: 970



A while ago MickeM was talking about The Dueling Banjo song and I wanted to show everyone if u didn't no how to play the beginning! Still working on the whole fast lighting banjo technique that my uncle can do and transfer it to guitar. But anyway hope u like it. Tell me if it worked for u (p.s. I wouldn't use very much distortion and don't know how to put it on GMC for a video sorry sad.gif have fun biggrin.gif wink.gif

0--0--0---------------------------------------------------------------
----------2--3-----2--------------------------------------------------
-----------------4------2---4-----------------------------------------
------------------------------------------------------------------------
------------------------------------------------------------------------
------------------------------------------------------------------------


it's fun playing over and over then getting faster this is good inspiration for beginners to me.

1 string
small e 12---12--12--10--11--8--10--6----10------------------------------------------------------

This post has been edited by beebo: Jan 29 2007, 02:19 AM
Go to the top of the page
 
+Quote Post
Molgan
post Feb 2 2007, 06:33 AM
Post #2


GMC:er
*

Group: Members
Posts: 76
Joined: 14-January 06
From: Sweden
Member No.: 284



QUOTE (beebo @ Jan 29 2007, 05:09 AM) *
A while ago MickeM was talking about The Dueling Banjo song and I wanted to show everyone if u didn't no how to play the beginning! Still working on the whole fast lighting banjo technique that my uncle can do and transfer it to guitar. But anyway hope u like it. Tell me if it worked for u (p.s. I wouldn't use very much distortion and don't know how to put it on GMC for a video sorry sad.gif have fun biggrin.gif wink.gif

0--0--0---------------------------------------------------------------
----------2--3-----2--------------------------------------------------
-----------------4------2---4-----------------------------------------
------------------------------------------------------------------------
------------------------------------------------------------------------
------------------------------------------------------------------------


it's fun playing over and over then getting faster this is good inspiration for beginners to me.

1 string
small e 12---12--12--10--11--8--10--6----10------------------------------------------------------


cool, thanks for sharing. I have played on a banjo once, at my school. It was a quite different experience laugh.gif
Go to the top of the page
 
+Quote Post
beebo
post Feb 2 2007, 08:02 AM
Post #3


GMC:er
*

Group: Members
Posts: 598
Joined: 7-December 06
Member No.: 970



no prob laugh.gif glad someone finally answered thanks
Go to the top of the page
 
+Quote Post
MickeM
post Feb 5 2007, 07:52 AM
Post #4


Born of NWOBHM, Moderation Team Leader
*

Group: Members
Posts: 8.562
Joined: 9-January 07
From: Stockholm, Sweden
Member No.: 1.062



QUOTE (beebo @ Jan 29 2007, 02:09 AM) *
Still working on the whole fast lighting banjo technique that my uncle can do and transfer it to guitar.


Cheers! smile.gif That lightning fast banjo is really tricky, keep your uncle busy!! laugh.gif

I borrowed your tab ad changed the first three notes. Ok?

E---------------------------------------------------------------------------
B-2--3--5-----2--3-----2--------------------------------------------------
G---------------------4------2---4-----------------------------------------
D---------------------------------------------------------------------------
A---------------------------------------------------------------------------
E---------------------------------------------------------------------------


--------------------
Go to the top of the page
 
+Quote Post

Reply to this topicStart new topic
1 User(s) are reading this topic (1 Guests and 0 Anonymous Users)
0 Members:

 


RSS Lo-Fi Version Time is now: 24th March 2017 - 03:15 PM