Reply to this topicStart new topic
> Tab Reading, Probably simple, but I can't find the answer anywhere
medicated
post Apr 20 2009, 03:56 PM
Post #1


GMC:er
*

Group: Members
Posts: 4
Joined: 29-March 09
Member No.: 6.991



Good evening everybody.

I was just wondering what the q and e stands for in the tab?

Ex: (from Ivan Milenkovic's lesson)

|--3--| |--3--| |--3--| |--3-|
Q E Q E Q E Q E <-----
E||----0---------0---------0---------0----0--|
B||--3g5~----5~--5~----5~--5~----5~--3----2--|
G||------------------------------------------|
D||------------------------------------------|
A||------------------------------------------|
E||------------------------------------------|

Hope I didn't post this in the wrong forum smile.gif

Regards,
medicated
Go to the top of the page
 
+Quote Post
Muris Varajic
post Apr 20 2009, 03:59 PM
Post #2


Instructor
Group Icon

Group: GMC Instructor
Posts: 15.459
Joined: 22-June 07
From: Sarajevo,Bosnia
Member No.: 2.159



Q is quarter note, E is eight note, S is sixteen note etc. smile.gif


--------------------
Youtube
MySpace
Website



Album "Let It Out" on
iTunes
and CD Baby

Check out my video lessons and instructor board!

The Pianist
tune is progress,check it out!

"ok.. it is great.. :P

have you myspace? Can i to personalize this for you guy?"
Go to the top of the page
 
+Quote Post
Ivan Milenkovic
post Apr 20 2009, 04:36 PM
Post #3


Instructor
Group Icon

Group: GMC Instructor
Posts: 25.396
Joined: 20-November 07
From: Belgrade, Serbia
Member No.: 3.341



Small tip: when you post a tab in the forum, you can wrap it in tab tags to create a monospaced font like this:

QUOTE
|--3--| |--3--| |--3--| |--3-|
Q E Q E Q E Q E <-----
E||----0---------0---------0---------0----0--|
B||--3g5~----5~--5~----5~--5~----5~--3----2--|
G||------------------------------------------|
D||------------------------------------------|
A||------------------------------------------|
E||------------------------------------------|


Small tip: when you post a tab in the forum, you can wrap it in tab tags to create a monospaced font like this:

CODE
|--3--| |--3--| |--3--| |--3-|
Q E Q E Q E Q E <-----
E||----0---------0---------0---------0----0--|
B||--3g5~----5~--5~----5~--5~----5~--3----2--|
G||------------------------------------------|
D||------------------------------------------|
A||------------------------------------------|
E||------------------------------------------|


--------------------
- Ivan's Video Chat Lesson Notes HERE
- Check out my GMC Profile and Lessons
- (Please subscribe to my) YouTube Official Channel
- Let's be connected through ! Facebook! :)
Go to the top of the page
 
+Quote Post
medicated
post Apr 20 2009, 05:00 PM
Post #4


GMC:er
*

Group: Members
Posts: 4
Joined: 29-March 09
Member No.: 6.991



Thank you very much for answer, tip and lesson smile.gif
Go to the top of the page
 
+Quote Post

Fast ReplyReply to this topicStart new topic
1 User(s) are reading this topic (1 Guests and 0 Anonymous Users)
0 Members:

 


RSS Lo-Fi Version Time is now: 19th January 2017 - 04:07 PM