Reply to this topicStart new topic
> How would you play this (from Canon Rock)
fkalich
post Feb 15 2007, 10:08 PM
Post #1


GMC:er
*

Group: Members
Posts: 2.728
Joined: 12-February 07
From: People's Republic of Lawrence Kansas
Member No.: 1.189



This is the way it is tabbed. I have worked on this for awhile, as it is written. How would you do this? I have been practicing as it is written, without hammers or pull offs.

I play the 7th note of 1st bar (at 12th fret) with pinky and slide up. I play the 5th note of 2nd bar with pinky. But all in all, it seems cumbersome.

The asterisks in front of the triplet and quintriplet are there to position where those occur (the editor will push things to the left if I leave empty spaces)

*************|-----3-----|
S S S S S S E E E S S S S E
---------------9-12S--17--12-------------------|
------------10----------------14-----------------|
----------9----------------------14--------------|
-------11---------------------------14-----------|
--7-12---------------------------------12S-16---|
----------------------------------------------------|

----------------D--U---S---D-------------------|
-------------D-----------------U-----------------|
-----------D----------------------U--------------|
--------D----------------------------U-----------|
--U--D----------------------------------U---S---|
----------------------------------------------------|


************|-----5----|
----21-17-------17-12---------------|
--------17----------14--------------|
-----------18----------14-----------|
--------------------------14---------|
-----------------------------12~----|
-------------------------------------|


--D-U----------D--U---------------|
--------U-------------U-------------|
-----------U-------------U-----------|
----------------------------U---------|
------------------------------U~----|
-------------------------------------|

This post has been edited by fkalich: Feb 15 2007, 10:20 PM
Go to the top of the page
 
+Quote Post
Andrew Cockburn
post Feb 15 2007, 10:29 PM
Post #2


Moderation Policy Director
Group Icon

Group: GMC Instructor
Posts: 10.459
Joined: 6-February 07
From: CT, USA
Member No.: 1.167



QUOTE (fkalich @ Feb 15 2007, 04:08 PM) *
This is the way it is tabbed. I have worked on this for awhile, as it is written. How would you do this? I have been practicing as it is written, without hammers or pull offs.

I play the 7th note of 1st bar (at 12th fret) with pinky and slide up. I play the 5th note of 2nd bar with pinky. But all in all, it seems cumbersome.

The asterisks in front of the triplet and quintriplet are there to position where those occur (the editor will push things to the left if I leave empty spaces)

*************|-----3-----|
S S S S S S E E E S S S S E
---------------9-12S--17--12-------------------|
------------10----------------14-----------------|
----------9----------------------14--------------|
-------11---------------------------14-----------|
--7-12---------------------------------12S-16---|
----------------------------------------------------|

----------------D--U---S---D-------------------|
-------------D-----------------U-----------------|
-----------D----------------------U--------------|
--------D----------------------------U-----------|
--U--D----------------------------------U---S---|
----------------------------------------------------|
************|-----5----|
----21-17-------17-12---------------|
--------17----------14--------------|
-----------18----------14-----------|
--------------------------14---------|
-----------------------------12~----|
-------------------------------------|
--D-U----------D--U---------------|
--------U-------------U-------------|
-----------U-------------U-----------|
----------------------------U---------|
------------------------------U~----|
-------------------------------------|


Nothing to add to the thread, but if you make the tabs in Courier font they will all align smile.gif


--------------------
Check out my Instructor profile
Live long and prosper ...

My Stuff:

Electric Guitars : Ibanez Jem7v, Line6 Variax 700, Fender Plus Strat with 57/62 Pickups, Line6 Variax 705 Bass
Acoustic Guitars : Taylor 816ce, Martin D-15, Line6 Variax Acoustic 300 Nylon
Effects : Line6 Helix, Keeley Modded Boss DS1, Keeley Modded Boss BD2, Keeley 4 knob compressor, Keeley OxBlood
Amps : Epiphone Valve Jnr & Head, Cockburn A.C.1, Cockburn A.C.2, Blackstar Club 50 Head & 4x12 Cab
Go to the top of the page
 
+Quote Post
Zee Deveel
post Feb 15 2007, 10:31 PM
Post #3


GMC:er
*

Group: Members
Posts: 165
Joined: 17-January 07
Member No.: 1.088



*************|-----3-----|
S S S S S S E E E S S S S E
---------------9-12S--17--12-------------------|
------------10----------------14-----------------|
----------9----------------------14--------------|
-------11---------------------------14-----------|
--7-12---------------------------------12S-16---|
----------------------------------------------------|

----------------D--S---U---Pulloff-------------------|
-------------D-----------------U-----------------|
-----------D----------------------U--------------|
--------D----------------------------U-----------|
--U--D----------------------------------U---S---|
----------------------------------------------------|

Ok I don't know much about sweeping but I'd guess something like that.


--------------------
Guitars - Epiphone Les Paul Custom (Seymour Duncan JB), Schecter Omen 6 Extreme FR, Squier Affinity Strat, Yamaha F-301 Acoustic

Pedals - Line 6 Uber Metal, Line 6 Echo Park, Jim Dunlop GCB95 Cry Baby, MXR Phase 90, Boss NS-2, Digitech WH-4, Boss TR-2, Boss TU-2, Behringer 7 Band EQ

Amps - Marshall AV50 Head + Cab, Marshall AVT100 112, Line 6 Spider 112, Fender Frontman
Go to the top of the page
 
+Quote Post
Pavel
post Feb 15 2007, 10:32 PM
Post #4


Instructor
*

Group: Passive
Posts: 3.764
Joined: 8-January 07
From: Rijeka, Croatia
Member No.: 1.055



Well i would add some hammer ons and pull-offs to this.... it's much easier to play then and the sound is just the same. The fingering you said is right.

Btw. if you are posting any tabs - select the Courier New font - than there will be no displacement of the tabs.


--------------------
"It isn't how many years you have been playing, it's how many hours." -- Prashant Aswani

"PRACTICE, PRACTICE, PRACTICE!" -- Michael Angelo Batio

Check out my video lessons and instructor board!

Go to the top of the page
 
+Quote Post
fkalich
post Feb 15 2007, 11:43 PM
Post #5


GMC:er
*

Group: Members
Posts: 2.728
Joined: 12-February 07
From: People's Republic of Lawrence Kansas
Member No.: 1.189



QUOTE (Pavel @ Feb 15 2007, 10:32 PM) *
Well i would add some hammer ons and pull-offs to this.... it's much easier to play then and the sound is just the same. The fingering you said is right.

Btw. if you are posting any tabs - select the Courier New font - than there will be no displacement of the tabs.


Thanks! You helped a lot.

edited out what I had below, because it sounded dopey to me.

This post has been edited by fkalich: Feb 16 2007, 06:44 AM
Go to the top of the page
 
+Quote Post

Fast ReplyReply to this topicStart new topic
1 User(s) are reading this topic (1 Guests and 0 Anonymous Users)
0 Members:

 


RSS Lo-Fi Version Time is now: 24th March 2017 - 03:10 AM