Reply to this topicStart new topic
> Could Annyone Tab This Plz :)
braer1
post Aug 9 2009, 12:30 PM
Post #1


GMC:er
*

Group: Members
Posts: 53
Joined: 19-July 09
Member No.: 7.417



This is the chords: Ein, zwei, drei - satan!
Intro:
A C D I A G
A C D I A C D

Verse 1
G
Du vet'kje hva som skjer

Men ska få kjenna dette her

Chorus
A C D
Fittesatan Anarkikommando
A C D
Radarkaos Kraftkommando

Verse 2
G
Klokka har slått elleve

Men eg ser du skjelve

Chorus
A C D
Fittesatan Anarkikommando
A C D
Radarkaos Kraftkommando

Verse 3
G
Et sant terrorvelde
Makt og helvete

Chorus
A C D
Fittesatan Anarkikommando
A C D
Radarkaos Kraftkommando

Verse 4
G
Nå når du kjenne det
A
Så vet du kem som melde det

Chorus
A C D
Fittesatan Anarkikommando
A C D
Radarkaos Kraftkommando

Bridge
E
Skaff deg en patron
A
Og redd en situasjon

Chorus x4
Fittesatan Anarkikommando
Radarkaos Kraftkommando


But could annyone please tab it?
Go to the top of the page
 
+Quote Post
Jesse
post Aug 9 2009, 12:40 PM
Post #2


GMC:er
*

Group: Members
Posts: 2.348
Joined: 5-July 08
From: Enschede/overijssel/Nederland
Member No.: 5.426



Hey Bear, in other countrys, we dont have the letter I as a chord, only A B C D E F G , Could you fix that?


--------------------
Don't just play it. Feel it!
Go to the top of the page
 
+Quote Post
Ivan Milenkovic
post Aug 9 2009, 12:46 PM
Post #3


Instructor
Group Icon

Group: GMC Instructor
Posts: 25.396
Joined: 20-November 07
From: Belgrade, Serbia
Member No.: 3.341



Here's the tab although in intro I skipped the "I" cause there is no I note or powerchord:

CODE
     INTRO                                     Verse 1  
     E     E  E  E  E     E  E  E  E  E  E     E        
E||--------------------|--------------------|----------|
B||--------------------|--------------------|----------|
G||--------5--7--------|-----5--7-----5--7--|----------|
D||--7-----5--7--7--5--|--7--5--7--7--5--7--|--5-------|
A||--7-----3--5--7--5--|--7--3--5--7--3--5--|--5-------|
E||--5-----------5--3--|--5--------5--------|--3-------|


  Chorus                   Verse 2    Chorus                
  E      E  E  E  E  E     E          E      E  E  E  E  E  
------------------------|----------|------------------------|
------------------------|----------|------------------------|
---------5--7-----5--7--|----------|---------5--7-----5--7--|
--7------5--7--7--5--7--|--5-------|--7------5--7--7--5--7--|
--7------3--5--7--3--5--|--5-------|--7------3--5--7--3--5--|
--5------------5--------|--3-------|--5------------5--------|


  Verse 3    Chorus                   Verse 4    
  E          E      E  E  E  E  E     E       E  
----------|------------------------|-------------|
----------|------------------------|-------------|
----------|---------5--7-----5--7--|-------------|
--5-------|--7------5--7--7--5--7--|--5-------7--|
--5-------|--7------3--5--7--3--5--|--5-------7--|
--3-------|--5------------5--------|--3-------5--|


  Chorus                   Bridge      
  E      E  E  E  E  E     E      E    
------------------------|------------||
------------------------|------------||
---------5--7-----5--7--|---------2--||
--7------5--7--7--5--7--|--2------2--||
--7------3--5--7--3--5--|--2------0--||
--5------------5--------|--0---------||




Duration Legend
---------------
W - whole
H - half
Q - quarter
E - 8th
S - 16th
T - 32nd
X - 64th
. - note dotted
|-n-|  - n-tuplets


Tablature Legend
----------------
L - tied note
x - dead note
g - grace note
(n) - ghost note
> - accentuded note
NH - natural harmonic
AH - artificial harmonic
TH - tapped harmonic
SH - semi harmonic
PH - pitch harmonic
h - hammer on
p - pull off
b - bend
br - bendRelease
pb - preBend
pbr - preBendRelease
brb - bendReleaseBend
\n/ - tremolo bar dip
\n - tremolo bar dive
-/n - tremolo bar Release up
/n\ - tremolo bar inverted dip
/n - tremolo bar return
-\n - tremolo bar Release down
S - shift slide
s - legato slide
/ -  slide into from below or out of upwards
\ -  slide into from above or out of downwards
~ - vibrato
W - wide vibrato
tr - trill
TP - tremolo picking
T - tapping
S - slap
P - pop
< - fade in
^ - brush up
v - brush down


This post has been edited by Ivan Milenkovic: Aug 9 2009, 12:46 PM


--------------------
- Ivan's Video Chat Lesson Notes HERE
- Check out my GMC Profile and Lessons
- (Please subscribe to my) YouTube Official Channel
- Let's be connected through ! Facebook! :)
Go to the top of the page
 
+Quote Post
Jenbu
post Aug 11 2009, 04:50 PM
Post #4


GMC:er
*

Group: Members
Posts: 56
Joined: 13-March 09
From: Hof, Norway
Member No.: 6.922



the best lyrics in a song biggrin.gif
I can translate if you want if not the author does it
Go to the top of the page
 
+Quote Post
Caelumamittendum
post Aug 11 2009, 04:59 PM
Post #5


Learning Rock Star
*

Group: Members
Posts: 4.347
Joined: 14-June 08
From: Copenhagen, Denmark
Member No.: 5.298



QUOTE (Jesse @ Aug 9 2009, 01:40 PM) *
Hey Bear, in other countrys, we dont have the letter I as a chord, only A B C D E F G , Could you fix that?


My geuss is the I just indicates or should have been a "chords here | chords here"-| type of thing.


--------------------
Go to the top of the page
 
+Quote Post
Mrblomme
post Aug 11 2009, 05:24 PM
Post #6


Learning Apprentice Player
*

Group: Members
Posts: 884
Joined: 17-September 07
From: Adegem - Belgium
Member No.: 2.807



QUOTE (Caelumamittendum @ Aug 11 2009, 05:59 PM) *
My geuss is the I just indicates or should have been a "chords here | chords here"-| type of thing.

Shouldn't the I be an E?


--------------------
Homer J. Simpson: Rockstars is there anything they dont know?

Go to the top of the page
 
+Quote Post
Caelumamittendum
post Aug 11 2009, 05:28 PM
Post #7


Learning Rock Star
*

Group: Members
Posts: 4.347
Joined: 14-June 08
From: Copenhagen, Denmark
Member No.: 5.298



Oh, that might also be an explanation.


--------------------
Go to the top of the page
 
+Quote Post
Ivan Milenkovic
post Aug 11 2009, 11:33 PM
Post #8


Instructor
Group Icon

Group: GMC Instructor
Posts: 25.396
Joined: 20-November 07
From: Belgrade, Serbia
Member No.: 3.341



I'm not sure if "I" stands for "|", but if it is, I would like braer1 to come over and clarify for us smile.gif


--------------------
- Ivan's Video Chat Lesson Notes HERE
- Check out my GMC Profile and Lessons
- (Please subscribe to my) YouTube Official Channel
- Let's be connected through ! Facebook! :)
Go to the top of the page
 
+Quote Post

Fast ReplyReply to this topicStart new topic
1 User(s) are reading this topic (1 Guests and 0 Anonymous Users)
0 Members:

 


RSS Lo-Fi Version Time is now: 23rd January 2017 - 09:42 AM