Reply to this topicStart new topic
> Desperate Times Kse
nowshido
post Nov 24 2009, 12:35 AM
Post #1


GMC:er
*

Group: Members
Posts: 11
Joined: 24-October 08
From: Alberta
Member No.: 6.126



If anyone is familiar with this song I have a question about this lick here

D|----------------------------------------------------------------------------------|
A|----------------------------------------------------------------------------------|
F|--------9------5-----9-----5-------5----------9------5-----9------5------5--|
C|---5-7---5-7---5-7---5-7---5-9---9---5-7---5-7---5-7---5-7---5-9---9-|
G|----------------------------------------------------------------------------------|
C|----------------------------------------------------------------------------------|

*Note I couldn`t get the PMing dots to align so I left them out

In the recording the last note 9 on string C before the lick is repeated kind of...studders...I`ve been trying to think of how to explain the sound better. I`m sorry if it doesn`t make sense. How is that sound accomplished? Does the technic have a name so I can better communicate it later?
Go to the top of the page
 
+Quote Post
Ivan Milenkovic
post Nov 24 2009, 12:38 AM
Post #2


Instructor
Group Icon

Group: GMC Instructor
Posts: 25.396
Joined: 20-November 07
From: Belgrade, Serbia
Member No.: 3.341



I'm not familiar with the lick, but you can wrap the tab in CODE tags and make it monospaced like this:

CODE
D|----------------------------------------------------------------------------------|
A|----------------------------------------------------------------------------------|
F|--------9------5-----9-----5-------5----------9------5-----9------5------5--|
C|---5-7---5-7---5-7---5-7---5-9---9---5-7---5-7---5-7---5-7---5-9---9-|
G|----------------------------------------------------------------------------------|
C|----------------------------------------------------------------------------------|


--------------------
- Ivan's Video Chat Lesson Notes HERE
- Check out my GMC Profile and Lessons
- (Please subscribe to my) YouTube Official Channel
- Let's be connected through ! Facebook! :)
Go to the top of the page
 
+Quote Post
nowshido
post Nov 24 2009, 12:49 AM
Post #3


GMC:er
*

Group: Members
Posts: 11
Joined: 24-October 08
From: Alberta
Member No.: 6.126



Good to know! Thanks! The lick should look like this:

CODE
D|-------------------------------------------------------------------|
A|-------------------------------------------------------------------|
F|-----9-----5-----9-----5-----5---------9-----5-----9-----5-----5---|
C|-5-7---5-7---5-7---5-7---5-9---9---5-7---5-7---5-7---5-7---5-9---9-|
G|-------------------------------------------------------------------|
C|-------------------------------------------------------------------|
   . .   . .   . .   . .   . .       . .   . .   . .   . .   . .


Go to the top of the page
 
+Quote Post
ZakkWylde
post Nov 24 2009, 12:49 AM
Post #4


Learning Tone Master
Group Icon

Group: MVC
Posts: 3.185
Joined: 22-June 07
From: Germany
Member No.: 2.164



To me it sounds like Adam or Joe (whoever is playing this part) is using a tremolo whip.
(while the note sustains you hit or pull the tremolo bar shortly and let it snap back instantly, causing a slight rumbling)

https://www.youtube.com/watch?v=_MTH0CzU4-8
Here at 3.25 minutes you can hear Mark Tremonti do it, I guess it's what KSE used


--------------------


Gear:
- Jackson USA Select KV2 King V with EMG 81/85
- Gibson Les Paul Custom Arctic White with EMG 81/85
- Ibanez Rg 8527 J Custom 7-String with DiMarzio Evolution and Air Norton

- Peavey 6505+ head with Marshall 1960AV 4x12 cab
- Peavey Vypyr 30 Practice Amp
- Dunlop Crybaby From Hell, Maxon OD808, Boss TU-2, MXR CarbonCopy, ISP Decimator, MXR Custom Audio Electronics Booster

Go to the top of the page
 
+Quote Post
nowshido
post Nov 24 2009, 12:55 AM
Post #5


GMC:er
*

Group: Members
Posts: 11
Joined: 24-October 08
From: Alberta
Member No.: 6.126



The same technic Kris uses in the full song lesson with Marcus?
Go to the top of the page
 
+Quote Post
ZakkWylde
post Nov 24 2009, 01:20 AM
Post #6


Learning Tone Master
Group Icon

Group: MVC
Posts: 3.185
Joined: 22-June 07
From: Germany
Member No.: 2.164



Which lesson?


--------------------


Gear:
- Jackson USA Select KV2 King V with EMG 81/85
- Gibson Les Paul Custom Arctic White with EMG 81/85
- Ibanez Rg 8527 J Custom 7-String with DiMarzio Evolution and Air Norton

- Peavey 6505+ head with Marshall 1960AV 4x12 cab
- Peavey Vypyr 30 Practice Amp
- Dunlop Crybaby From Hell, Maxon OD808, Boss TU-2, MXR CarbonCopy, ISP Decimator, MXR Custom Audio Electronics Booster

Go to the top of the page
 
+Quote Post
nowshido
post Nov 24 2009, 02:34 AM
Post #7


GMC:er
*

Group: Members
Posts: 11
Joined: 24-October 08
From: Alberta
Member No.: 6.126



Nocturnal Vision Full Song Lesson

https://www.guitarmasterclass.net/solo-guit...-vision-lesson/

QUOTE (ZakkWylde @ Nov 23 2009, 05:20 PM) *
Which lesson?



I should note that the technic is done at 2:05 main video and explained on the video 1
Go to the top of the page
 
+Quote Post
ZakkWylde
post Nov 25 2009, 04:18 PM
Post #8


Learning Tone Master
Group Icon

Group: MVC
Posts: 3.185
Joined: 22-June 07
From: Germany
Member No.: 2.164



Yeah it's done like this.


--------------------


Gear:
- Jackson USA Select KV2 King V with EMG 81/85
- Gibson Les Paul Custom Arctic White with EMG 81/85
- Ibanez Rg 8527 J Custom 7-String with DiMarzio Evolution and Air Norton

- Peavey 6505+ head with Marshall 1960AV 4x12 cab
- Peavey Vypyr 30 Practice Amp
- Dunlop Crybaby From Hell, Maxon OD808, Boss TU-2, MXR CarbonCopy, ISP Decimator, MXR Custom Audio Electronics Booster

Go to the top of the page
 
+Quote Post

Reply to this topicStart new topic
1 User(s) are reading this topic (1 Guests and 0 Anonymous Users)
0 Members:

 


RSS Lo-Fi Version Time is now: 23rd March 2017 - 05:36 PM