Reply to this topicStart new topic
> Speed Picking Run 3!
mattacuk
post Mar 28 2007, 09:40 PM
Post #1


Lets go fishing!
Group Icon

Group: GMC Senior
Posts: 5.526
Joined: 21-December 06
From: illinois
Member No.: 1.001



Hey guys, I know the first half of the following lick is played over G minor scale. But what scale box are we in when I shift from fret 15 to 17 ???

Picking run 3 (ascending + descending exercise)

e|-------------------------------------------------------------------------------|
b|---------------------------13-15-16-18-16-15-----------------------------------|
g|---------12-14-15-12-14-15-------------------*17-15-14-17-15-14-----------------|
d|12-13-15-------------------------------------------------------17-15-13--------|
a|-------------------------------------------------------------------------------|
e|-------------------------------------------------------------------------------|

The reason for asking is, i would like to include more strings in this run - pref includeing the A string like kris does in the video!! smile.gif


--------------------
mysql> SELECT * FROM master_name WHERE ((firstname = 'Paul') AND (lastname = 'Gilbert'));


"The Fundimental Difference between Paul Gilbert and Buckethead is that Paul Explores the Good side of the force, while Buckethead Explores the Dark Side of the Force" :)
Go to the top of the page
 
+Quote Post
mattacuk
post Mar 30 2007, 10:18 AM
Post #2


Lets go fishing!
Group Icon

Group: GMC Senior
Posts: 5.526
Joined: 21-December 06
From: illinois
Member No.: 1.001



Anyone?? sad.gif


--------------------
mysql> SELECT * FROM master_name WHERE ((firstname = 'Paul') AND (lastname = 'Gilbert'));


"The Fundimental Difference between Paul Gilbert and Buckethead is that Paul Explores the Good side of the force, while Buckethead Explores the Dark Side of the Force" :)
Go to the top of the page
 
+Quote Post
Kristofer Dahl
post Mar 30 2007, 10:22 AM
Post #3


GMC Founder & Rocker
Group Icon

Group: GMC Instructor
Posts: 14.961
Joined: 15-August 05
From: Stockholm, Sweden
Member No.: 2



Which lesson is this from?


--------------------
Go to the top of the page
 
+Quote Post
mattacuk
post Mar 30 2007, 10:34 AM
Post #4


Lets go fishing!
Group Icon

Group: GMC Senior
Posts: 5.526
Joined: 21-December 06
From: illinois
Member No.: 1.001



QUOTE (Kristofer Dahl @ Mar 30 2007, 10:22 AM) *
Which lesson is this from?


https://www.guitarmasterclass.net/speed-alt...ing-lesson3.htm

Picking run 3 (ascending + descending exercise)

e|-------------------------------------------------------------------------------|
b|---------------------------13-15-16-18-16-15-----------------------------------|
g|---------12-14-15-12-14-15-------------------17-15-14-17-15-14-----------------|
d|12-13-15-------------------------------------------------------17-15-13--------|
a|-------------------------------------------------------------------------------|
e|-------------------------------------------------------------------------------|


I have been useing the speed picking runs from all 3 of your speed picking videos to warm up every day before I practice new licks and songs! smile.gif


--------------------
mysql> SELECT * FROM master_name WHERE ((firstname = 'Paul') AND (lastname = 'Gilbert'));


"The Fundimental Difference between Paul Gilbert and Buckethead is that Paul Explores the Good side of the force, while Buckethead Explores the Dark Side of the Force" :)
Go to the top of the page
 
+Quote Post

Fast ReplyReply to this topicStart new topic
1 User(s) are reading this topic (1 Guests and 0 Anonymous Users)
0 Members:

 


RSS Lo-Fi Version Time is now: 24th January 2017 - 08:08 AM