Reply to this topicStart new topic
> Eric Clapton Style Blues Lesson
Frankster
post Apr 1 2010, 04:57 PM
Post #1


GMC:er
*

Group: Members
Posts: 90
Joined: 2-July 08
From: Austria
Member No.: 5.414



Hi!

I´m trying to understand the lesson and now I have a question.

Is it possible that between your playing and the Guitar Pro file is a difference ?

https://www.guitarmasterclass.net/solo-guit...e-blues-lesson/

Video Nr 6

Original

       |-3-|                              
S S S S S E S S E S S S S S S
-------3---------------------------------|
-----3---6-3-----------------------------|
--5b---------5br--3---3g4----------------|
--------------------5------5-3---3b-3b---|
-------------------------------5-------5-|
-----------------------------------------|



What I hear


-------3--------------------------------------|
-----3---6-3----------------------------------|
--5b---------5br--3---5----3g4----------------|
--------------------5---5-------5-3---3b-3b---|
------------------------------------5-------5-|
----------------------------------------------|


The ryhtm is also different between your playing and the guitar pro file

Is this just an imagination or is there a difference ?

Thanks
Frankster
Go to the top of the page
 
+Quote Post
Ivan Milenkovic
post Apr 2 2010, 10:30 PM
Post #2


Instructor
Group Icon

Group: GMC Instructor
Posts: 25.396
Joined: 20-November 07
From: Belgrade, Serbia
Member No.: 3.341



There is a slight alteration, but you are free to use both versions, depending what you like. Both is correct, and it's a very small alteration.


--------------------
- Ivan's Video Chat Lesson Notes HERE
- Check out my GMC Profile and Lessons
- (Please subscribe to my) YouTube Official Channel
- Let's be connected through ! Facebook! :)
Go to the top of the page
 
+Quote Post

Fast ReplyReply to this topicStart new topic
1 User(s) are reading this topic (1 Guests and 0 Anonymous Users)
0 Members:

 


RSS Lo-Fi Version Time is now: 25th May 2017 - 09:56 AM